Wakacyjny Konkurs Śpiewnikowy
Wakacyjny Konkurs Śpiewnikowy
Popraw Opracowanie
Transponuj
0

Here I am Wilki

Tekst piosenki i chwyty na gitarę

Wilki - Here I am


Intro:

E-------------------------------
H------7-------6---7p5---5---7--
G----7---7---7---7-----7---7-7--
D--0-------0-----------------0--
A-------------------------------
E-------------------------------

Zwrotka, zwroteczka:
E-----------------------------------
H------7-------7-------7-------7----
G----7---7---6---6---5---5---4---4--
D--0-------0-------0-------0--------
A-----------------------------------
E-----------------------------------
   e          A
E------------------------------------
H-------8----------0-----------------
G---------9----------6---------------
D-----------9------------------------
A-----7----------7-------------------
E---0----------5---------------------


Refren:
E-----------------------
H---3-3---3-3---3-3-----
G----4-----4-----4------
D-0-----6-----5----4----
A-----------------------
E-----------------------
zakończenie:
------------------------
---3-3---3-3---3-3------
----4-----4-----4-------
-0-----6-----5----3-----
------------------------
------------------------

Zwrtka.
D
e
A

Refren.
D
fis
e
A

Em,A,D,F#m
Oceń to opracowanie
Ocena czytelników: Doskonały 2 głosy

Kontrybucje
grzybek0000

Wakacyjny Konkurs Śpiewnikowy

Pula nagród w konkursie ponad 10.000 zł!
Przysyłaj opracowania piosenek i zdobądź bony na zakupy w sklepie muzycznym.
Zapoznaj się z regulaminem konkursu.
anonim