Wakacyjny Konkurs Śpiewnikowy
Wakacyjny Konkurs Śpiewnikowy
Popraw Opracowanie
Transponuj
0

Son of the blue sky Wilki

Tekst piosenki i chwyty na gitarę

intro(rowniez jako zwrotka i refren)
 E|-------------------------------------------------------------------------------------------0---|
 H|--------0---------0---------0----------------------0----------0---------0----------3-------|
 G|-----0----0----0---0----0---0--------0-------0----0----0----0----0---0----------------|
 D|--5---------4----------2------------2----2--5---------4----------2------------2----------|
 A|----------------------------------3---------------------------------------------3-------------|
 E|-----------------------------------------------------------------------------------------------|

 wstawka (bodajze miedzy zwrotkami)
 E|--------------------------|
 H|--------------------------|
 G|----------1--------4----|
 D|--------0--------0------|
 A|------2-------5---------|
 E|---3-------6------------|

 Every time of midnight              G a 
 Every time we muddle again   e  C
 Hold on lovely memories        G a  e 
 Every sound you bring out       G a 
 Every time we suffer again      e  C
 Holding lovely memories         G a  e 

 Every stand of no way
 Every town we muddle again
 Call, I hold your memories
 Every game of no sence
 Every shame we offer in game
 Hold on lovely memory

 Son of the blue sky...             G a  e  C

 Every time of midnight
 Every time we muddle again
 Call and hold flash memory
 Every time of midnight
 Every time of midnight
 Call and hold flash memory

 I'd rather say                                A e 
 Feeding some birds lost in a cage
 Kicking one's hells havings no way to go
 Strolling musicians up on the way
 Pulling one's leg having no way to go
 Feeding some birds lost in a cage there
 Beeing so free, finding the way to be
 Wondering how smart it happens to be, happens to be
 C
 Son of the blue sky...

G,Am,Em,C,A
Oceń to opracowanie
Ocena czytelników: Niczego sobie+ 8 głosów

Kontrybucje
Robert
  • Teledysk

Wakacyjny Konkurs Śpiewnikowy

Pula nagród w konkursie ponad 10.000 zł!
Przysyłaj opracowania piosenek i zdobądź bony na zakupy w sklepie muzycznym.
Zapoznaj się z regulaminem konkursu.
anonim
Znaleziono 5 komentarzy.
  • KuDi
    KuDi 11 lat temu

    Żle napisałeś Tabsy


    E|--------------------------|
    H|--------------------------|
    G|----------1--------4----|
    D|--------0--------0------|
    A|------2-------5---------|
    E|---3-------6------------| to są twoje

    Po pierwsze:
    według mnie zaczyna się to grać od struny "A"

    Po drugie:
    Ja bym zagrał to taK:

    e|--------------------------|
    H|----------1--------4----|
    G|--------0--------3------|
    D|------2-------5---------|
    A|---3-------6------------|
    E|--------------------------|

    Z poważaniem

  • Anonimowy użytkownik
    Dżeertych 12 lat temu

    das ist das:D Dzieks...

  • Anonimowy użytkownik
    cleevenus 12 lat temu

    obie tabulatury są dobre a akordy pasują do piosenki. warto sobie wydrokować.

  • Anonimowy użytkownik
    goru44 12 lat temu

    o to mi chodziło super

  • Anonimowy użytkownik
    punker 12 lat temu

    son of the blue sky ????????

    synu nie bluzgaj:))))))))