Wakacyjny Konkurs Śpiewnikowy
Wakacyjny Konkurs Śpiewnikowy
Popraw Opracowanie Usuń
Transponuj
0

Consument Acid Drinkers

Tekst piosenki

  • Tekst piosenki s314ryt
    1 ulubiony
Consument



    s  - slide
    /  - pull up
    \  - pull down

    INTRO:
E-|---------------------------------------------------------------------------|
B-|---------------------------------------------------------------------------|
G-|-------------------------9-------------------------------------------------|
D-|-99999999-9s12--99999999-7-99999999-9s12--99999--12-11-10------------------|
A-|-77777777-7s10--77777777---77777777-7s10--77777--10-9--8-------------------|
E-|---------------------------------------------------------------------------|

    ZWROTKA:
E-|---------------------------------------------------------------------------|
B-|---------------------------------------------------------------------------|
G-|----------------------------------------------------5----------------9-----|
D-|----------------------------------------------------3----------------7-----|
A-|-777777777777--5--7777777777777--10--5555555555555-----555555555555--------|
E-|-555555555555--3--5555555555555--8-----------------------------------------|

    REFREN:
E-|---------------------------------------------------------------------------|
B-|---------------------------------------------------------------------------|
G-|---------------------------------------------------------------------------|
D-|---------------------------------------------------------------------------|
A-|-------------6/8-6/8-6/8-6/8--------------7\6-----7\6----------------------|
E-|--5555555555------------------5555555555------7\6-----7\6------------------|

Oceń to opracowanie

Kontrybucje
s314ryt

Wakacyjny Konkurs Śpiewnikowy

Pula nagród w konkursie ponad 10.000 zł!
Przysyłaj opracowania piosenek i zdobądź bony na zakupy w sklepie muzycznym.
Zapoznaj się z regulaminem konkursu.
anonim