Wakacyjny Konkurs Śpiewnikowy
Wakacyjny Konkurs Śpiewnikowy
Popraw Opracowanie Usuń
Transponuj
0

IQ Cyco Acid Drinkers

Iq Cyco


I don't know if this is correct, but it sounds pretty good.

. = Palm Mute
/ = Slide

Main Riff
E|----------------------||
B|----------------------||
G|----------------------||
D|----------------------||
A|---5/6------3-3-3/5---||
D|---5/6-666--3-3-3/5---||
         ...

E|---------------------||
B|---------------------||
G|---------------------||
D|---------------------||
A|---5/6-5/6-5/6-5/6---||
D|---5/6-5/6-5/6-5/6---||


E|--------------------------------------------------------||
B|--------------------------------------------------------||
G|--------------------------------------------------------||
D|--12-12-12-12--12-12-12-12--12--13--14--0-0-0-0-0-0-----||
A|--12-12-12-12--12-12-12-12--12--13--14--0-0-0-0-0-0-----||
D|--12-12-12-12--12-12-12-12--12--13--14--0-0-0-0-0-0-----||
                                          . . . . . .

Oceń to opracowanie

Kontrybucje
s314ryt

Wakacyjny Konkurs Śpiewnikowy

Pula nagród w konkursie ponad 10.000 zł!
Przysyłaj opracowania piosenek i zdobądź bony na zakupy w sklepie muzycznym.
Zapoznaj się z regulaminem konkursu.
anonim