Block lodge Anthrax

Tekst piosenki

  • Tekst piosenki Angie
tuning: Dis (Eb, Ab, Db, Gb, Bb, Dis)

Riff 1 (played as upstroke w/ heavy tremolo effect)
|--0------------0-----------------------------|
|--0------------0-----------------------------|
|--0------------0-----------------------------|
|--2------------2-----------------------------|
|--2------------2-----------------------------|
|--0------------0-----------------------------|

Riff 2
|--------------------------------------------------|
|--------------------------------------------------|
|--------------------------------------------------|
|--------0-------0-----0--------0--------0---------|
|-----2-------2--------------2--------2------------|
|--0--------0-------0-----0--------0--------1--3---|

Riff 3
|-------------------------------------------------------|
|---------0-h1-p0--------0-----------0-h1-p0--------3---|
|------------------0---------------------------0--------|
|------2--------------2-----------2---------------2-----|
|----2--------------------------2-----------------------|
|--0--------------------------0-------------------------|

Riff 4
|----------------------------------------------|
|----------------------------------------------|
|--------3--------3---------3--3--3--1--0------|
|------2------------------------------------0--|
|----2---------2---------2---------------------|
|--0---------0--------0------------------------|

Riff 5
|---------------------------------------------------------------------|
|---------------------------------------------------------------------|
|------0-------0------------------------------------------------------|
|----1---1---0---0------0-----------3---------0---------3---------0---|
|--3-------1----------1---1----3---------3---------3---------3--------|
|-------------------3--------1----1----1----1----1---1-----1---1------|

Riff 6A
|------------------------1----------|
|------------------------4----------|
|-----------------------------------|
|--1--0-----1--0--------------------|
|--------1--------1--3--------------|
|-----------------------------------|

Riff 6B (harmony part to 6A)
|------------------------------------------------------------|
|------------------------------------------------------------|
|------------------------------------------------------------|
|--5--3-------5--3---------3--3-h5-p3--3-h5-p3--3-h5-p3------|
|---------5----------5--6------------------------------------|
|------------------------------------------------------------|

solo (four guitars arranged for 1) GOOD LUCK !!
|--3--3--3--3--3--3--3--3--3--5--3----------------|
|--3--3--3--3--3--3--3--3--3--5--3--3--3--3-------|
|--4--4--4--4--4--4--4--4--4--5--4--4--4--4-------|
|--5--5--5--5--5--5--5--5--5--7--5--5--5--5-------|
|-----------------------------------5--5--5-------|
|-------------------------------------------------|

|--/-3-\--/-3-\---3--3--3--5--7--10-----/-10--/-3--/-3----|
|--/-3-\--/-3-\---3--3--3--5--6--12-----/-12--/-3--/-3----|
|--/-4-\--/-4-\---4--4--4--5--7--12-----/-12--/-4--/-4----|
|--/-5-\--/-5-\---5--5--5--7--9--12-----/-12--/-5--/-5----|
|---------------------------------------------------------|
|---------------------------------------------------------|

|--3--3--3--2--0--------/-3-\--/-3-\--3--3--3--5--7--15-----|
|--3--3--3--1--0--3-----/-3-\--/-3-\--3--3--3--5--6--15-----|
|--4--4--4--2--0--5--4--/-4-\--/-4-\--4--4--4--5--7--16-----|
|--5--5--5--4--2--7--5--/-5-\--/-5-\--5--5--5--7--9--17-----|
|-----------------5--5--------------------------------------|
|--------------------3--------------------------------------|

Riff 7A
|---------------------------------------------------------------|
|---------------------------------------------------------------|
|---------------------------------------------------------------|
|----5-5-5-3-----3----------------------------------------------|
|--3-3-3-3-1-1-1-1--5-5-5-5--3-3-3-3-3-3-3-3-3-3-3-3-3-3-3-3----|
|-------------------3-3-3-3--1-1-1-1-1-1-1-1-1-1-1-1-1-1-1-1----|
p.m._____________________________________________|

Riff 7B (played over 7A) 2 guitars arranged for 1
|--------------------------------|
|--8--10--6--8----------6--------|
|--8--10--7--8--7---8---5--------|
|---------------8--10------------|
|---------------------------------|
|---------------------------------|

|----------------------------------5~~~~-----|
|--8-8-10--6--6--8------------6----6~~~~-----|
|--8-8-10--7--7--8--7-7---8---5--------------|
|-------------------8-8--10------------------|
|--------------------------------------------|
|--------------------------------------------|

|----------------------------------5~~~~--5~~~~--5~~~~--5-\---|
|--8-8-10--6--6--8------------6----6~~~~--6~~~~--6~~~~--6-\---|
|--8-8-10--7--7--8--7-7---8---5-------------------------------|
|-------------------8-8--10-----------------------------------|
|-------------------------------------------------------------|
|-------------------------------------------------------------|

|----------------------------------5~~~~---5-\--|
|--8-8-10--6--6--8------------6----6~~~~---6-\--|
|--8-8-10--7--7--8--7-7---8---5-----------------|
|-------------------8-8--10---------------------|
|-----------------------------------------------|
|-----------------------------------------------|

KEY
p.m. = palm mute
                                      = vibrato on note or notes



Oceń to opracowanie
Kontrybucje:
Angie
Angie
anonim