Caught on a Mosh Anthrax

Tekst piosenki

  • Tekst piosenki Angie
These three bars twice ending 1
|-------------|-------------|-------------|----------|
|---3---------|---3---------|---3---------|----------|
|---2---------|---2---------|---2---------|---2------|
|---0---------|---0---------|---0---------|---2------|
|---0---------|---0---------|---0---------|---0------|
|-------0--0--|-------0--0--|-------0--0--|-----0--0-|

ending 2

E5

Riff One also used in Chorus

play three times
|------------------------|------------------------|
|------------------------|------------------------|
|------------------------|------------------------|
|------------------------|------------------------|
|------------------------|------------------------|
|-0--0--1--0--0--3--0--0-|-4--0--5--0--6--7--8--0-|

|-----------------------|---------------------|
|-----------------------|---------------------|
|-----------------------|---------------------|
|-----------------------|---------------------|
|-----------------------|---------------------|
|---0--1--0--0--3--0--0-|-4--0--5--8--7--6--0-|

ending third time
|----------------------|
|----------------------|
|-------------------9--|
|-------------------9--|
|-------------------7--|
|-4--5--0--8--7--6-----|

Verse riff (four times)

Why don't you listen...
|--------------|--------------|--------------|
|--------------|--------------|--------------|
|--9-----------|--------------|--------------|
|--9---9---9---|--9--9--9--9--|--9--9--9--9--|
|--7---7---7---|--7--7--7--7--|--7--7--7--7--|
|--------------|--------------|--------------|

|----------------|--------------|------------|
|----------------|--------------|------------|
|----------------|--------------|------------|
|--9--9--9-------|-----------10\|-9--------8/|
|--7--7--7----9-/|-10---------8\|-7--------6/|
|-------------7-/|--8--0--0-----|----0--0----|
ending first three times
|-------------| |--------------|
|-------------| |--------------|
|-------------| |--------------|
|-9--9--9--9--| |--9--9--9--9--|
|-7--7--7--7--| |--7--7--7--7--|
|-------------| |--------------|

Ending fourth time

|-----------|--------|
|-----------|--------|
|-----------|--------|
|--9--9-----|--------|
|--7--7--5--|-----4--|
|--------3--|-----2--|

Prechorus

Can't stand it for another day.
|--------------------------|-----------------------|
|--------------------------|-----------------------|
|--------------------------|-----------------------|
|--------------------------|-----------------------|
|--4-----4-----4-----4-----|--4-----4--5-----5--4--|
|--2--0--2--0--2--0--2--0--|--2--0--2--3-----3--2--|

ain't gonna live my life this way.
|------------------------|--------------------|
|------------------------|--------------------|
|------------------------|--------------------|
|------------------------|--------------------|
|------4-----4-----4-----|--4-----4--5-----4--|
|---0--2--0--2--0--2--0--|--2--0--2--3-----2--|

cold sweat, my fists are clenching
|--------------------------|-----------------------|
|--------------------------|-----------------------|
|--------------------------|-----------------------|
|--------------------------|-----------------------|
|--4-----4-----4-----4-----|--4-----4--5-----5--4--|
|--2--0--2--0--2--0--2--0--|--2--0--2--3-----3--2--|

stomp. stomp. stomp. the idiot convention
|------------------------|--------------|
|------------------------|--------------|
|------------------------|--------------|
|------------------------|--------------|
|------4-----4-----4-----|--4-----4--5--|
|---0--2--0--2--0--2--0--|--2--0--2--3--|

Chorus

D5 (ring two bars) F5 (one bar) C5 (one bar)
then chorus riff four times
then verse
then prechorus
then chorus

Mosh
|-----|-----|-----|--------------------------|
|-----|-----|-----|--------------------------|
|-----|-----|-----|--------------------------|
|-----|-----|-----|--------------------------|
|--2--|--2--|--2--|--2--2--2--2--2--2--2--2--|
|--0--|--0--|--0--|--0--0--0--0--0--0--0--0--|

Bridge riff (three times)

|------------|-----|-------------------------|
|------------|-----|-------------------------|
|---------9--|--5--|-------------------------|
|--2------9--|--5--|--4----------------------|
|--2------7--|--3--|--4----4--4--4--4--4--4--|
|--0---------|-----|--2----2--2--2--2--2--2--|

|-----------------------|
|-----------------------|
|--------------------9--|
|--------------------9--|
|--5--X--X--7----7---7--|
|--3--X--X--5----5------|

then E5 (eighth note rythym for four bars)

Solo:
Prechorus riff (2 3/4 times)

|---|------|---|------|-------h--p-----|-------|
|---|--14--|---|--14--|-----13-16-13---|--12---|
|---|------|---|------|----------------|-------|
|---|------|---|------|----------------|-------|
|---|------|---|------|----------------|-------|
|---|------|---|------|----------------|-------|

|--------------|--------------|-------------|-------------|
|--------------|--------------|-------------|-------------|
|--------------|--------------|-------------|-------------|
|--9----9------|-9-10----9-10-|-12----10-12-|-14----12-14-|
|----------12--|--------------|-------------|-------------|
|--------------|--------------|-------------|-------------|

|----------------h--p----------|
|----------12--12-13-12----12--|
|----13-14--------------14-----|
|-15---------------------------|
|------------------------------|
|------------------------------|

new riffs over solo:
this riff only one time this riff eight times
|----------------------| |------------------------|
|----------------------| |------------------------|
|----------------------| |------------------------|
|----------------------| |------------------------|
|--4-----4--5----5--2--| |---2--5--2--2--5--2--2--|
|--2--0--2--3----3--0--| |---0--3--0--0--3--0--0--|

|----------------------|----b--r--------------|
|---------12-13-15--13-|--15-16-15--\/\/\/\/--|
|--13--14--------------|----------------------|
|----------------------|----------------------|
|----------------------|----------------------|
|----------------------|----------------------|

|----h--p---------------|----h--p-----------------|
|--13-15-12-13-12----12-|--10-12-9-10-9-----------|
|-----------------14----|---------------10-9----9-|
|-----------------------|--------------------12---|
|-----------------------|-------------------------|
|-----------------------|-------------------------|

|-----------------------|-----------------------|
|-----------------------|---h--p----------------|
|--9--/\/\/\/\/\/\/\/---|--7--9--7-----7--------|
|-----------------------|-----------9-----9--7--|
|-----------------------|-----------------------|
|-----------------------|-----------------------|

|---------------------|-------------------------|
|---------------------|-------------------------|
|---------------------|-------------------------|
|---h--p--------------|--h-p--------------------|
|--8-11-8--7--8--7----|-5-7-5\3--3--2-----------|
|------------------10-|----------------5--4--1--|

|---------------|
|---------------|
|---------------|
|---------------|
|---------------|-
|--0------------|
whammy bar dive

Rythym for next part goes:

E5 (2 bars) C5 (2 bars) F#5 (2 bars) G5 (1 bar) A5 (1/2) B5 (1/2)

there is a two guitar harmony here and this is the higher one
this whole arrangement is played twice with different endings
p
|----b----|-12-13-12-----12--------------|
|--15--17-|-----------15----13-15-12-13--|
|---------|------------------------------|
|---------|------------------------------|
|---------|------------------------------|
|---------|------------------------------|

|---b--r----|------p---------------------|
|-15-17-15--|-12-13-12---12-13-12--------|
|-----------|----------14---------14-13--|
|-----------|----------------------------|
|-----------|----------------------------|
|-----------|----------------------------|

|------------|-------------------|
|------------|--------12---------|
|--14-/\/\/--|--13-14----14-13---|
|------------|-------------------|
|------------|-------------------|
|------------|-------------------|

|----------------------------------------|
|-------------------13-15-16-15-13-12----|
|----------13-14-15-------------------13-|
|-12-14-15-------------------------------|
|----------------------------------------|
|----------------------------------------|

ending one
|------------12-13-12---12--|
|---12-13-15----------------|
|-14------------------------|
|---------------------------|
|---------------------------|
|---------------------------|

ending two
|-------------12-13-----------12-13--|
|----12-13-15---------12-13-15-------|
|--14---------------14---------------|
|------------------------------------|
|------------------------------------|
|------------------------------------|

then chorus riff eight times
in the first time play this over it
b
|--22--24--/\/\/\/\/\/--|--/\/\/\/\/\/\/\--|
|-----------------------|------------------|
|-----------------------|------------------|
|-----------------------|------------------|
|-----------------------|------------------|
|-----------------------|------------------|

then verse
prechorus
chorus

then:

|-----|----------------|-----------------|-------|
|-----|----------------|-----------------|-------|
|-----|----------------|-----------------|-------|
|-----|----------------|-----9--9--9--9--|--10\--|
|--5--|--2----8--9--10-|-----7--7--7--7--|--10\--|
|--3--|--0----6--7--8--|-----------------|---8\--|


tab legend

h - hammer on
p - pull off
b - bend
r - release
\ - slide up
/ - slide down
/\/\ - wide vibrato


Oceń to opracowanie
Kontrybucje:
Angie
Angie
anonim