Pipeline Anthrax

Tekst piosenki

  • Tekst piosenki Angie
RIFF A:
e---------------------------------------
B---------------------------------------
G---------------------------------------
D---------------------------------------
A-------2-------------------------------
E--12\\\0-------------------------------
[tremolo pick when sliding, with p.m.]

RIFF B:
------------------------------------------
------------------------------------------
------------------------------------------
------------------------------------------
------------------------------------------
--12\--0-7-3-7-0-7-3-7-0-7-3-7-0-7-3-7----
[p.m...........................]

repeat Riff B 3 times for a total of 4 times
with E chords on bass on 3rd and 4th times

Riff C:
Guitar 1
|----------------------------------------------------
|----------------------------------------------------
|----------------------------------------------------
|----0-2-0-2-4-2-0-2-4-2-4-2-0-2-0-------------------
|--2-------------------------------2-----------------
|----------------------------------------------------
|
| Guitar 2
|----------------------------------------------------
|----------------------------------------------------
|---------------------------------------0-2-4-2-0-2--
|-------------------------------------4--------------
|----------------------------------------------------
|----------------------------------------------------

Guitar 1
|----------------------------------------------------
|----------------------------------------------------
|----0-2-0-2-4-2-0-2-4-2-4-2-0-2-0-------------------
|--2-------------------------------2-----------------
|----------------------------------------------------
|----------------------------------------------------
|
| Guitar 2
|-------------------------------------------0--------
|---------------------------------------0-1---3-1-0--
|-------------------------------------2--------------
|----------------------------------------------------
|----------------------------------------------------
|----------------------------------------------------

Riff D:
-----------------------------------------------------
-----------------------------------------------------
-----------------------------------------------------
--4-4--5-5--4-4--5-5--4-4--4-4-----------------------
--2-2--3-3--2-2--3-3--2-2--2-2--7--\5-/7--\5---------
--------------------------------5--\3-/5--\3---------

Play Riff A
Play Riff B 4 times
Play Riff C
Play Riff D

Riff E 1. 2.
-----------------------------------------------|--------------------|-----
-----------------------------------------------|--------------------|-----
-----------------------------------------------|--------------------|-----
-----------2-0------------0--------------------|------------0-------|-----
--3-0-0--3-----3-2------2---3-2-0------0-3-2-0-|--2-------2---3-2---|--4--
-------------------3-3------------1-1----------|-----3-3------------|--2--
C G F G Gis

On the second time, guitar 2 plays this:
-----------------------------------------------|--------------------|-----
--1--------------0-----------------------------|--------------------|-----
--------------------------------2--------------|--------------------|--1--
-----------------------------------------------|--------------------|-----
-----------------------------------------------|--------------------|-----
-----------------------------------------------|--------------------|-----


Oceń to opracowanie
Kontrybucje:
Angie
Angie
anonim