0
0

Goodbye Archive

Tekst piosenki i chwyty na gitarę

  • Chwyty na gitarę Kaasica
    2 ulubione

IG`mD thinking of you
e In Cmy sleep
GThDey`re not good thouths
e theC worst kind of sad
GcoDnnot be repaired
e wheCn i wake up
Gi`DII be in despair
e C


G

Cos i know I`ve got to say
  GI know I`ve got to say

CHORUS:
 GgoDode byeC baby goodbye
GgoDode byeC baby goodbye
yoGurD`re e mCy sweetheart goodbye
yoGurD`re e mCy sweetest goodbye





 |G7----7----7---------7-----|--5-D-----5--------5--------5---------|
|--8----8-----8--------8---|----7------7---------7--------7------|
|----7----7------7--------7|------7-------7---------7--------7---|
|--------------------------|-------------------------------------|
|--------------------------|-------------------------------------|
|--------------------------|-------------------------------------|
e C

|3---- 3-------3--------3---------|3-----3-------3-------3----------|
|--5------5--------5-------5------|--5-------5------5-------5-------|
|----4-------4---------4-------4--|----5--------5------5--------5---|
|---------------------------------|---------------------------------|
|---------------------------------|---------------------------------|
|---------------------------------|---------------------------------| 4X


Oceń to opracowanie
Kontrybucje:
Kaasica
Kaasica
anonim