Rusza kanał Śpiewnika Wywroty na TouTube!

Właśnie ruszył nasz nowy kanał dla gitarzystów i amatorów ukulele. Dwa razy w tygodniu pojawią się w nim profesjonalne opracowania znanych i lubianych piosenek. Zapraszamy do subskrypcji kanału!

Subskrybuj

Kanikuły Bum

Ref.
E1  |--------------------------|
H2  |--------3-1---------------|
G3  |--0-4---------------------|
D4- |--------------------------|
A5  |--------------------------|
E6  |--------------------------|


E1  |---------------------------|
H2  |-----------3-3-1-----5-5-5-|
G3  |-2-2-4-4--------2-2--------|
D4- |---------------------------|
A5  |---------------------------|
E6  |---------------------------|

E1  |-------------------------------|
H2  |-----------5-5-5-----------3-1-|
G3  |-7-7-2-2---------7-7-0-4-------|
D4- |-------------------------------|
A5  |-------------------------------|
E6  |-------------------------------|

Oceń to opracowanie
Kontrybucje:
Czesio6
Czesio6
Bum

Bum

Dodaj własne wykonanie

Umiesz zagrać tą piosenkę? Nagraj swoje wykonanie i pokaż innym jak grasz!
anonim
  • Czesio6
    Czesio6 11 lat temu

    nie trudne, tylko nie chce mi sie pisac

  • smerfetka
    smerfetka 12 lat temu

    człowieczku, któryś to napisał: nie można było jeszcze słów i chwytów napisać???
    takie to trudne???

  • bartaz
    bartaz 12 lat temu

    jeśli tak to prosze kontakt GG: 8914291

  • bartaz
    bartaz 12 lat temu

    ma ktoś do tego chwyty??

Najpopularniejsze piosenki Bum