Wakacyjny Konkurs Śpiewnikowy
Wakacyjny Konkurs Śpiewnikowy
Popraw Opracowanie Usuń
Transponuj
0

The Sensitive Kind Carlos Santana

Tekst piosenki

  • Tekst piosenki Robert
h - hammer on
       p - pull off
       b - bend string up
       r - release bend
       / - slide up
       \ - slide down
       v - vibrato more v's=more vib
       t - right hand tap
       x - play 'note' with heavy damping




 (0:00)                                         (0:06)
e----------------------------------------------------------------|
B---------------------------------------6------------------------|
G-----5---------------(5)/7--5--5----------7b9r7v----------------|
D--8-----8----5\0------------------------------------------------|
A-----------------------------------(8)--------------------------|
E----------------------------------------------------------------|


This harmonic is probably pinched or develops on the amp
but I can't always do it. You can always do a 7th fret G
string natural harmonic if you want to get the cool sound.
e----------------------------8--6--------------------------------|
B--5/7--5--5-------6b8r6b8\-------6h8p6--------------------------|
G-------------------------------------------7---5<19>*-----------|
D-------------(8)-------------------------8----------------------|
A----------------------------------------------------------------|
E----------------------------------------------------------------|
Vocal Enters:
     Verse1   Don't take her for granted, she had a hard time
              Don't missunderstand her, or play with her mind
              Treat her so gently, it will pay you in time
              You gotta know; she's The Sensitive Kind


     Verse2   Tell her you Love her, each and every Night
              And you will discover, she will treat you right
              If you believe, I know you'll find
              There ain't nothing like the Sensitive Kind
      Solo
(1:21)
e----------------------------------------------------------------|
B----------------------------------------------------------------|
G------------------5b7(7)r5----5b7r--5b7r3----3v-----------------|
D-------------------------------------------5--------------------|
A------3------3h5------------------------------------------------|
E--3h6----5/6----------------------------------------------------|

(1:29)                                         (1:35)
e------6-----6h8b9---8b9--8b9-8b9--8b9--8b9--8-8--6--------------|
B--6/8----8------------------------------------------------------|
G----------------------------------------------------------------|
D----------------------------------------------------------------|
A----------------------------------------------------------------|
E----------------------------------------------------------------|

  (1:37) b=1/4bend
e----------------------------------------------------------------|
B--12b-----------------------------------------------------------|
G-------12---------10b12r10-10-------10h12---10b12r1010b12-------|
D------------------------------12--------------------------12----|
A----------------------------------------------------------------|
E----------------------------------------------------------------|

  (1:42)                                                  (1:46)
e----------------------------------------------------------------|
B----------------------------------------------------------------|
G-10-------------------------------------------------------------|
D---10b12r10--10p8h10--10vv--10bvv---10bvv--10bvp8--10-10-10p8h10|
A-----------13---------------------------------------------------|
E----------------------------------------------------------------|


e------6---8p6--8p6---8bh10--8/10---13p10--13----13/15-15-15b----|
B--6/8-----------------------------------------------------------|
G----------------------------------------------------------------|
D----------------------------------------------------------------|
A----------------------------------------------------------------|
E----------------------------------------------------------------|

                         (1:54)                            (1:57)
e13b15--13h15p13p10-----15p13p10-------18-18---------------------|
B-------------------------------18b20-------18b20(20)r18-20p18p15|
G----------------------------------------------------------------|
D----------------------------------------------------------------|
A----------------------------------------------------------------|
E----------------------------------------------------------------|

  (1:57)                                (1:59)
e----------------------------------------------------------------|
B-18b20p18p15----------------------------------------------------|
G--------------17p15---15-17b19r17-17p15--15-17p15--17b19-17p15--|
D--------------------17-----------------17--------------------17-|
A----------------------------------------------------------------|
E----------------------------------------------------------------|

                (2:02)      (2:03)     (2:04)        (2:07)
e----------------------------------------------------------------|
B----------------------------------------------------------------|
G-15-17b19r17-------5b7r5-5---5b7r5---5-5--5---5-5---------------|
D---------------------------8-------8-------8-------8--8---------|
A----------------------------------------------------------------|
E----------------------------------------------------------------|
               (2:10)Change Pickup Selector to Bridge
e--------------------6--8br6---8--8--6--8b10r8b10r8--------------|
B-6--6(/)8brb----6/8---------------------------------------------|
G----------------------------------------------------------------|
D----------------------------------------------------------------|
A----------------------------------------------------------------|
E----------------------------------------------------------------|

Change to Neck pickup   Harmonic develops, fret shown if you want
to produce it.
(2:13)                                                 (2:19)
e---10--10b11----8p6--8p6--13--10--------------------------------|
B------------<7>------------------13p11---11--13b-13p11h13-------|
G--------------------------------------12------------------------|
D----------------------------------------------------------------|
A----------------------------------------------------------------|
E----------------------------------------------------------------|

                                                        (2:23)
e----18h20-21b22r21--18b20--18b20--18b20--20p18p15---15vv--------|
B--------------------------------------------------18------------|
G----------------------------------------------------------------|
D----------------------------------------------------------------|
A----------------------------------------------------------------|
E----------------------------------------------------------------|

                                       (2:25)
e---15-----------------------------------------------------------|
B------18p15-----------------------------------------------------|
G------------17br15----17b19-17p15-----(17)/---------------------|
D-------------------17-------------17----------------------------|
A----------------------------------------------------------------|
E----------------------------------------------------------------|

Guitar 2 (or if you're quick Guitar One!)                                                                     (2:26)
e----------------------------------------------------------------|
B----------------------------------------------------------------|
G----------------------------------------------------------------|
D--------------------------------------17\-----------------------|
A--------------------------------------17\-----------------------|
E--------------------------------------15\-----------------------|


  (2:26) Verse3  She gets so lonely
                 Waiting for you, you are the only thing
                 To help her through, don't take her for granted
                 She has a hard time, you gotta know,
                 She's The Sensitive Kind
                 You've got to know; She's The Sensitive Kind
                 You've got to know; She's The Sensitive Kind!

G
Oceń to opracowanie

Kontrybucje
Robert

Wakacyjny Konkurs Śpiewnikowy

Pula nagród w konkursie ponad 10.000 zł!
Przysyłaj opracowania piosenek i zdobądź bony na zakupy w sklepie muzycznym.
Zapoznaj się z regulaminem konkursu.
anonim