Wakacyjny Konkurs Śpiewnikowy
Wakacyjny Konkurs Śpiewnikowy
Popraw Opracowanie Usuń
Transponuj
0

Arms Wide Open Creed

Tekst piosenki

  • Tekst piosenki -=art=-
e||-------------------------------|
B||--0h1---1--------1h3----1------|
G||-------------------------------|
D||-------------------------------|
A||--3--------3----------3--------|
E||-------------------------------|

e||-------------------------------|
B||---0h1---1--------1h3-----1----|
G||-------------------------------|
D||-------------------------------|
A||---2-------2-----------2-------|
E||-------------------------------|

e||-------------------------------|
B||---0h1---1--1p0----------------|
G||----------------0-------0------|
D||-------------------------------|
A||---0-------0-----------0-------|
E||-------------------------------|

e||-------------------------------|
B||---0h1---1--1p0----------------|
G||----------------0--------------|
D||-------------------------------|
A||---0-------0-----------0-------|
E||-------------------------------|

Electric Guitar Solo (play wild!):

e||-------------------------------------|
B||-------------------------------------|
G||-------------------------------------|
D||-10-10---12---14--15--14--15--14^^^--|
A||-------------------------------------|
E||-------------------------------------|


e||-------------------------------------|
B||-------------------------------------|
G||-------------------------------------|
D||----10---12---14--15--14--15--14^^^--|
A||-------------------------------------|
E||-------------------------------------|


e||--------------------------------------------|
B||--------------------------------------------|
G||--------------------------------------------|
D||----10---12---14---17--15--14--15-14-15-14--|
A||--------------------------------------------|
E||--------------------------------------------|

Oceń to opracowanie

Kontrybucje
-=art=-
  • Teledysk

Wakacyjny Konkurs Śpiewnikowy

Pula nagród w konkursie ponad 10.000 zł!
Przysyłaj opracowania piosenek i zdobądź bony na zakupy w sklepie muzycznym.
Zapoznaj się z regulaminem konkursu.
anonim