Wakacyjny Konkurs Śpiewnikowy
Wakacyjny Konkurs Śpiewnikowy
Popraw Opracowanie Usuń
Transponuj
0

Illusion Creed

Tekst piosenki i chwyty na gitarę

Tuning : 'Dropped-D' (D A D G B E, low to high)Special symbols or notation:  b = bend
                              ^ = hammer-on or pull-off

Intro
=====
Just bass at first...

G------------------------------------------------------------------
D------------------------4-------------------------------4---------
A---2-----------------------5----0---2----------------------5------
D-------3---3b3b---0---------------------3---3b3b---0--------------

Then guitar fades in with a vibrato...

e------------------------------------------------------------------
B----6-6--8---6-6--8--6-6--8b---8--6--4----------------------------
G------------------------------------------------------------------
D------------------------------------------------------------------
A------------------------------------------------------------------
E------------------------------------------------------------------

And then the distorted chords...
    B5       F5       D5
e------------------------------------------------------------------
B------------------------------------------------------------------
G---4--------------------------------------------------------------
D---4--------3--------0--------4-----------------------------------
A---2--------3--------0-----------5--------------------------------
E------------3--------0--------------------------------------------
...and so on.

Verse
=====
      B5             F5     D5  D5
1. The sun rises to another day
   My constitution keeps changing, 'Til it slips away
   So I lie awake and stare
   My mind thinking, just wandering, Does anybody care?
2. Sitting in my room now
   Hiding thoughts just hoping one day I'll get out
   I hear a voice call my name
   Breaking trance so silent, So I can stay the same

Chorus (Same Figure)
====================

   Should I stay or go?
   Should I sleep or stay awake?
   Am I really happy or it is all
   Just an illusion

Solo
====
D B C A

This is a toughie, but a goodie...I've got most of it transcribed,
and will send it to the archive either when I finish or when
someone writes and requests it...I just have a lack of time
right now....

Bridge
======
D           B                 C    A
Wait now, many things left unsaid
This life remains the same but I change
I try to fool myself in believing
Things are going to get better but life goes on

End on a chorus, and that's it!  Questions, comments,
suggestions, and requests to

D,A,G,A#,A#5,F5,D5,C
Oceń to opracowanie

Kontrybucje
-=art=-

Wakacyjny Konkurs Śpiewnikowy

Pula nagród w konkursie ponad 10.000 zł!
Przysyłaj opracowania piosenek i zdobądź bony na zakupy w sklepie muzycznym.
Zapoznaj się z regulaminem konkursu.
anonim