Wakacyjny Konkurs Śpiewnikowy
Wakacyjny Konkurs Śpiewnikowy
Popraw Opracowanie Usuń
Transponuj
0

Is This the End Creed

Tekst piosenki

  • Tekst piosenki -=art=-
Drop D Tuning eBGDADIntro/Verse
(Clean)

e---------------------------------------------
B------------------------5^6---6^5------------
G-7-------/10-9-/7---5^7-----------7^5--------
D----7----------------------------------------
A------0--------------------------------------
D-0--------/8-7-/0---0---------0--------0-----
                        1st ending
e----------------------|----------------------
B-----6-----3----------|-4-----3--------------
G--5------5----5-----3-|-----3---2------------
D-----------------5----|-----------0----------
A-----------3----------|----------------------
D--3-----------------1-|---------0--------0---
                         2nd ending (pattern not
shown)
e---------------------------|------------------
B-6--6/5--------------------|-4-----3----16----
G-5--5---5^7^5--------5^7~--|-3-----2----14----
D---------------------------|-1-----0----0-----
A---------------------------|-1-----0----0-----
D-----------------0---------|-1-----0----0-----

1st Chorus 2x
(Clean)

e----------------------------------------------
B-3-3-33-33-333--------------------------------
G-2-2-22-22-222--9-9-99-99-999--7-7-77-77-xx---
D-0-0-00-00-000--7-7-77-77-777--5-5-55-55-xx---
A-0-0-00-00-000--7-7-77-77-777--5-5-55-55-xx---
D-0-0-00-00-000--7-7-77-77-777--5-5-55-55-xx---

e----------------------------------------------
B----------------------------------------------
G-7--/9-9-/11-11-/12-12-/14-14-----------------
D-x---x-x--x--x---x--x---x--x------------------
A-5--/7-7-/9--9--/10-10-/12-12-----------------
D----------------------------------------------

2nd Chorus  3x
(Distortion)

e----------------------------------------------
B-3-3-33-33-333--------------------------------
G-2-2-22-22-222--9-9-99-99-999--7-7-77-77-xx---
D-0-0-00-00-000--7-7-77-77-777--5-5-55-55-xx---
A-0-0-00-00-000--7-7-77-77-777--5-5-55-55-xx---
D-0-0-00-00-000--7-7-77-77-777--5-5-55-55-xx---

e----------------------------------------------
B----------------------------------------------
G-7--/9-9-/11-11-/12-12-/14-14-----------------
D-x---x-x--x--x---x--x---x--x------------------
A-5--/7-7-/9--9--/10-10-/12-12-----------------
D----------------------------------------------

Bridge (Guitar #1) Repeat for rest of Song
(Clean)
e---5--5--5--5--5--5--5--5--5--5--5--5--5--5--5
B-57-57-57-57-57-57-57-57-57-57-57-57-57-57-57-
G----------------------------------------------
D----------------------------------------------
A----------------------------------------------
D----------------------------------------------

Bridge (Guitar #2) 4x
(Distortion)                   1st ending
e-----------------------------|-------------------
B-3-3-33-33-333---------------|-------------------
G-2-2-22-22-222-9-9-99-99-999-|7-7-77-77----------
D-0-0-00-00-000-7-7-77-77-777-|5-5-55-55-0-3-x-3-0
A-0-0-00-00-000-7-7-77-77-777-|5-5-55-55-0-3-x-3-0
D-0-0-00-00-000-7-7-77-77-777-|5-5-55-55-0-3-x-3-0
                                       PM

(Bridge) 2nd ending (Clean)

e----------------------------------------------
B----------------------------------------------
G-7--/9-9-/11-11-/12-12-/14-14-----------------
D-x---x-x--x--x---x--x---x--x------------------
A-5--/7-7-/9--9--/10-10-/12-12-----------------
D----------------------------------------------

Chorus (Clean) 1x
Chorus (Dist)  3x
Chorus (Clean) 1x
Repeat Bridge Guitar #1 and fade out.

Oceń to opracowanie

Kontrybucje
-=art=-

Wakacyjny Konkurs Śpiewnikowy

Pula nagród w konkursie ponad 10.000 zł!
Przysyłaj opracowania piosenek i zdobądź bony na zakupy w sklepie muzycznym.
Zapoznaj się z regulaminem konkursu.
anonim