Wakacyjny Konkurs Śpiewnikowy
Wakacyjny Konkurs Śpiewnikowy
Popraw Opracowanie Usuń
Transponuj
0

Unforgiven Creed

Unforgiven



Dropped-D Tuning
rhy. fig. 1 2x

E|------|-----------------------------------------------------|
B|------|-----------------------------------------------------|
G|------|-----------------------------------------------------|
D|-77-7\|-7--------5h7---------------------5h7----------------|
A|-55-5\|-5----5h7----------5-7-5------5h7-----------7-5--1-0-|
D|------|-0-00---------0-00-------0-00---------0-0-0-7-5--1-0-|

riff A 4x

E|---------------------------|
B|---------------------------|
G|---------------------------|
D|-------3h5-----------------|
A|---3h5----------3h5-3------|
D|-0--------0-00-------0-00--|

rhy. fig. 2 4x riff B

E|--------------------------|----------|
B|--------------------------|----------|
G|--------------------------|----------|
D|----------5h7-------------|----------|
A|-5-55-5h7-----5-55-7-55-5-|-7-5--1-0-|
D|--------------------------|-7-5--1-0-|

play rhy. fig. 2 twice, leaving out riff B the last time for the verse
chorus:
2x

E|---------------------------------------------------------------|
B|---------------------------------------------------------------|
G|---------------------------------------------------------------|
D|-3-33-3-33-3-33-3-33-2-22-2-22-2-22-2-22-1-11-1-11-1-11-1-11-0-|
A|-3-33-3-33-3-33-3-33-2-22-2-22-2-22-2-22-1-11-1-11-1-11-1-11-0-|
D|-3-33-3-33-3-33-3-33-2-22-2-22-2-22-2-22-1-11-1-11-1-11-1-11-0-|

play this once for the first time through then
end the chorus with this 4x

E|----------------------|
B|----------------------|
G|----------------------|
D|----7----7/9-99-9-9\7-|
A|----5----5/7-77-7-7\5-|
D|-00-0-00--------------|

now play the verse and chorus stuff again
after the second chorus play rhy. fig 1 then
play riff C:

riff c

E|----------------------------------------------------------------------------
B|----------------------------------------------------------------------------
G|----------------------------------------------------------------------------
D|----------------------------------------------------------------------------
A|--------------5p3--------------5p3---5p3----------------5p3-------------
D|-000000000000-----000000000000-----0-----000000000000----000000000000-----


E|-----------------------------------------------------------------------|
B|-----------------------------------------------------------------------|
G|-----------------------------------------------------------------------|
D|---------------------------------------------------------------------0-|
A|-5p3---5p3---5p3--------------5p3--------------5p3---5p3---5p3---5p3-0-|
D|-----0-----0-----000000000000-----000000000000-----0-----0-----0-----0-|

nows the noisy part then the song ends with the chorus.

A#,Cm
Oceń to opracowanie

Kontrybucje
s314ryt

Wakacyjny Konkurs Śpiewnikowy

Pula nagród w konkursie ponad 10.000 zł!
Przysyłaj opracowania piosenek i zdobądź bony na zakupy w sklepie muzycznym.
Zapoznaj się z regulaminem konkursu.
anonim