Wakacyjny Konkurs Śpiewnikowy
Wakacyjny Konkurs Śpiewnikowy
Popraw Opracowanie Usuń
Transponuj
0

Wash away those years Creed

TUNING: drop d (D,A,D,G,B,E)


     INTRO/VERSE 1:

     Play 5 times

    E|---------------------------------------------------------------|
    B|---------------------------------------------------------------|
    G|--10-10-10-9---9h10-9h10-9h10p9-7---7h9-7h9-7h9p7-7-6-6h7--7/--|
    D|---------------------------------------------------------------|
    A|---------------------------------------------------------------|
    D|---------------------------------------------------------------|

     Play 1 time

    E|--------------------------|
    B|--------------------------|
    G|--9-7h9-7h9-7h9-7-6h7--7--|
    D|--------------------------|
    A|--------------------------|
    D|--------------------------|

     1ST CHORUS:

    E|------------------------------------------------------------------|
    B|------------------------------------------------------------------|
    G|--5--5--5-5-5--5--5--5-5-4--4-4/7--7--7-7-7-8--7h8p7------7/10\9--|
    D|--3--3--3-3-3--2--2--2-2-2--2-2/5--5--5-5-5-6--5h6p5--0-0-0-------|
    A|--3--3--3-3-3--2--2--2-2-2--2-2/5--5--5-5-5-6--5h6p5--0-0---------|
    D|--3--3--3-3-3--2--2--2-2-2--2-2/5--5--5-5-5-6--5h6p5--0-0---------|

    E|-----------------------------------------------------------------------|
    B|-----------------------------------------------------------------------|
    G|--5--5--5-5-5--5--5--5-5-4--4-4/7--7--7-7-7-8--7h8p7-------------------|
    D|--3--3--3-3-3--2--2--2-2-2--2-2/5--5--5-5-5-6--5h6p5--5-5--0-0--5---0--|
    A|--3--3--3-3-3--2--2--2-2-2--2-2/5--5--5-5-5-6--5h6p5--5-5--0-0--5---0--|
    D|--3--3--3-3-3--2--2--2-2-2--2-2/5--5--5-5-5-6--5h6p5--5-5--0-0--5---0--|

     VERSE 2:

     Play 3 times

    E|---------------------------------------------------------------|
    B|---------------------------------------------------------------|
    G|--/10-10-10-9---9h10-9h10-9h10p9-7---7h9-7h9-7h9p7-7-6-6h7--7--|
    D|---------------------------------------------------------------|
    A|---------------------------------------------------------------|
    D|---------------------------------------------------------------|

     Play 1 time

    E|--------------------------|
    B|--------------------------|
    G|--9-7h9-7h9-7h9-7-6h7--7--|
    D|--------------------------|
    A|--------------------------|
    D|--------------------------|

     2ND CHORUS:

     Play 3 times

    E|------------------------------------------------------------------|
    B|------------------------------------------------------------------|
    G|--5--5--5-5-5--5--5--4-4-4--4-4/7--7--7-7-7-8--7h8p7------7/10\9--|
    D|--3--3--3-3-3--2--2--2-2-2--2-2/5--5--5-5-5-6--5h6p5--0-0-0-------|
    A|--3--3--3-3-3--2--2--2-2-2--2-2/5--5--5-5-5-6--5h6p5--0-0---------|
    D|--3--3--3-3-3--2--2--2-2-2--2-2/5--5--5-5-5-6--5h6p5--0-0---------|

     Play 1 time

    E|-----------------------------------------------------------------------|
    B|-----------------------------------------------------------------------|
    G|--5--5--5-5-5--5--5--4-4-4--4-4/7--7--7-7-7-8--7h8p7-------------------|
    D|--3--3--3-3-3--2--2--2-2-2--2-2/5--5--5-5-5-6--5h6p5--5-5--0-0--5---0--|
    A|--3--3--3-3-3--2--2--2-2-2--2-2/5--5--5-5-5-6--5h6p5--5-5--0-0--5---0--|
    D|--3--3--3-3-3--2--2--2-2-2--2-2/5--5--5-5-5-6--5h6p5--5-5--0-0--5---0--|

     INTERLUDE:

    E|-----------|
    B|-----------|
    G|-----------| The 5's are played with Distortion
    D|--5-----0--| and the 0's are clean with Bass.
    A|--5-----0--|
    D|--5-----0--|

     SOLO/BRIDGE:

     Play this 3 times

    E|----------------------------------------------------------------------------------------|
    B|----------------------------------------------------------------------------------------|
    G|------------12-10-8---------------------------------------------------------------------|
    D|--8--8--8-8---------12-8-8--8-8-8-10-8-8--10--10--10-10-12-10----------12---------------|
    A|--8--8--8-8--------------8--8-8--------8--10--10--10-10-------13-12-12-12--13-12h13p12--|
    D|--8--8--8-8--------------8--8-8--------8--10--10--10-10----------------12---------------|

     Then play this once

    E|------------------------------------------|
    B|------------------------------------------|
    G|------------------------------------------|
    D|--12--12-13-12h13p12--12--12-13-12h13p12--|
    A|--12------------------12------------------|
    D|--12------------------12------------------|

Oceń to opracowanie

Kontrybucje
s314ryt

Wakacyjny Konkurs Śpiewnikowy

Pula nagród w konkursie ponad 10.000 zł!
Przysyłaj opracowania piosenek i zdobądź bony na zakupy w sklepie muzycznym.
Zapoznaj się z regulaminem konkursu.
anonim