Wakacyjny Konkurs Śpiewnikowy
Wakacyjny Konkurs Śpiewnikowy
Popraw Opracowanie Usuń
Transponuj
0

With Arms Wide Open Creed

TUNING: drop d (D,A,D,G,B,E)


     INTRO/VERSE 1:

    E|------------------------------------------------------------------------|
    B|--0h1-------0-----1h3---1---1-0h1p0--0h1-------1-----1h3---1---1-0h1p0--|
    G|------0-------1--------------------------0-------0----------------------|
    D|--------2----------------------------------0----------------------------|
    A|--3-------3-----3-3---3---3----------2-------2-----2-2---2---2---2------|
    D|------------------------------------------------------------------------|

    E|--------------------------------------------------------------------------|
    B|--0h1-------1------0h1p0-------0------0h1-------1------0h1p0-------0------|
    G|------0-------0----------0-------0--------0-------0----------0-------0----|
    D|--------2------------------2----------------2------------------2----------|
    A|--0-------0-----0--0---------0-----0--0-------0-----0--0---------0-----0--|
    D|--------------------------------------------------------------------------|

     1ST CHORUS:

    E|-------------------------|
    B|--6--6----------5--5-----|
    G|--5--5--5--5-5--4--4--7--|
    D|--3--3--5--5-5--2--2--7--|
    A|--3--3--3--3-3--2--2--5--|
    D|--3--3----------2--2--0--|

     VERSE 2:

    E|--------------------|
    B|--1----1----1--1-1--|
    G|--0----0----0--0-0--|
    D|--2----0----2--2-2--|
    A|--3----2----0--0-0--|
    D|--------------------|

     2ND CHORUS:

    E|---------------------------------------------------------------|
    B|--6--6--6-6-6--6-6--------------------5--5-5--5--5-------------|
    G|--5--5--5-5-5--5-5--5--5--5-5-5--5-5--4--4-4--4--4---7--7-7-7--|
    D|--3--3--3-3-3--3-3--5--5--5-5-5--5-5--2--2-2--2--2---7--7-7-7--|
    A|--3--3--3-3-3--3-3--3--3--3-3-3--3-3--2--2-2--2--2---5--5-5-5--|
    D|--3--3--3-3-3--3-3--------------------2--2-2--2--2---0--0-0-0--|

    E|--------------------------------------------------------|
    B|--6--6--6-6-6--6-6--------------------5--5-5--5--5------|
    G|--5--5--5-5-5--5-5--5--5--5-5-5--5-5--4--4-4--4--4---7--|
    D|--3--3--3-3-3--3-3--5--5--5-5-5--5-5--2--2-2--2--2---7--|
    A|--3--3--3-3-3--3-3--3--3--3-3-3--3-3--2--2-2--2--2---5--|
    D|--3--3--3-3-3--3-3--------------------2--2-2--2--2---0--|

     SOLO:

    E|----------------------------------------------------------------------|
    B|-------3-5-6-5-6-5~---3-5-6-5-6-5~---3-5-6-8-6-5-6-5-6-5-6-5-6-9b--8--|
    G|--5-------------------------------------------------------------------|
    D|--5-------------------------------------------------------------------|
    A|--3-------------------------------------------------------------------|
    D|----------------------------------------------------------------------|

     BRIDGE:

    E|-----------------------------------------------------------------|
    B|--3-5-6-5-6-5~---3-5-6-5-6-5~---3-5-6-8-6-5-6-5-6-5-6-5-6-9b--8--|
    G|-----------------------------------------------------------------|
    D|-----------------------------------------------------------------|
    A|-----------------------------------------------------------------|
    D|-----------------------------------------------------------------|

     ENDING CHORD:

    E|-----|
    B|-----|
    G|--5--|
    D|--5--|
    A|--3--|
    D|-----|

Oceń to opracowanie

Kontrybucje
s314ryt

Wakacyjny Konkurs Śpiewnikowy

Pula nagród w konkursie ponad 10.000 zł!
Przysyłaj opracowania piosenek i zdobądź bony na zakupy w sklepie muzycznym.
Zapoznaj się z regulaminem konkursu.
anonim