0
0

Rozkołysanka Farben Lehre

Tekst piosenki i chwyty na gitarę

  • Chwyty na gitarę Dosia
    2 ulubione
Czasami lepiej jest spać x4

a
Czasami lepiej jest spać
W cieniu ogrodu dzikich traw,
We śnie budować nowy świat,
Czasami lepiej spać,
Czasami lepiej spać,
Czasami lepiej...

Ref:
a G a
Niech ci się przyśnią dzikie drzewa.
Niech ci się przyśni kwiatów rój,
Niech ci się przyśni leśny skrzat,
Niech ci się przyśnię ja,
Tylko zaśnij...

Czasami lepiej jest spać
W cieniu ogrodu dzikich traw,
We śnie budować nowy świat,
Czasami lepiej spać,
Czasami lepiej spać,
Czasami lepiej...

Ref:
Niech ci się przyśnią dzikie drzewa.
Niech ci się przyśni kwiatów rój,
Niech ci się przyśni leśny skrzat,
Niech ci się przyśnię ja,
Tylko zaśnij...

Czasami lepiej jest spać
W cieniu ogrodu dzikich traw,
We śnie budować nowy świat,
Czasami lepiej spać,
Czasami lepiej spać,
Czasami lepiej...

Ref:
Niech ci się przyśnią dzikie drzewa.
Niech ci się przyśni kwiatów rój,
Niech ci się przyśni leśny skrzat,
Niech ci się przyśnię ja,
Tylko zaśnij...

Po refrenie
|--------------------------------------|\
|--------------------------------------| \
|--------------------------------------| \ x4
|---7---7---10p11p12p11p10p7-10-7--7-5-| /
|-0---0--------------------------------| /
|--------------------------------------|/

|---------------------------------------|\
|---------------------------------------| \
|---------------------------------------| \ x3
|-5p7-7777-555-10p12-5p7-7777-555-----5-| /
|---------------------------------5p7---| /
|---------------------------------------|/

|---------------------------------|
|---------------------------------|
|---------------------------------| za 4. razem
|-5p7-7777-555-10p12-5p7-7777-7-5-|
|---------------------------------|
|---------------------------------|

Solo
|------------------------------------------------|
|------------------------------------------------|
|------------------------------5p7-5---5---------|
|------------555---7~~~~-5p7-9-------9---9-5p7-7-|
|-5p7-7-7-55-----7-------------------------------|
|------------------------------------------------|

|---------------------------------------------|
|---------------------------------------------|
|---------------------------------------------|
|-9p10p9-5-7-9p10p9-5-7-9---9p10p9-5-7-5-9-10-|
|---------------------------------------------|
|---------------------------------------------|

|-----------------------------------------------|
|-----------------------------------------------|
|-----------------------------5p7-5---5---------|
|------------555-7-5----5p7-9-------9---9-5p7-7-|
|-5p7-7-7-55------------------------------------|
|-----------------------------------------------|

|---------------------------------------------------------|
|---------------------------------------------------------|
|---------------------------------------------------------|
|-9p10p9-5-7-9p10p9-5-7-9---10p12p10-10-9p10p9-5-7-5-9-10-|
|---------------------------------------------------------|
|---------------------------------------------------------|

|----------------------------------------------------|\
|----------------------------------------------------| \
|-12/ \-10p12p10-7-9---7p9p7----7--------------------| \ x2
|----------------------------10---10-10p12p10-5-5-10-| /
|----------------------------------------------------| /
|----------------------------------------------------|/

|---------------------------------|\
|---------------------------------| \
|-------7p9-9-12--7p9-5-6p7-------| \ x2
|-5p7-7---------------------9-7p9-| /
|---------------------------------| /
|---------------------------------|/

|-----------------------------------------------|
|-----------------------------------------------|
|-9-9-12-12-9-9-9-9-12-9-9-9-9-12-12-9-9-9-9-12-|
|-----------------------------------------------|
|-----------------------------------------------|
|-----------------------------------------------|

|--------------------------------------------|
|--------------------------------------------|
|-9-9-9-9-12-12-9-9-9-9-12---7p9-5-6p7-------|
|--------------------------------------9-5p9-|
|--------------------------------------------|
|--------------------------------------------|

|------------|
|------------|
|---5---6/ \-|
|-5---5------|
|------------|
|------------|

Po solówce
|---------------------------------------|\
|---------------------------------------| \
|---------------------------------------| \ x3
|-5p7-7777-555-10p12-5p7-7777-555-----5-| /
|---------------------------------5p7---| /
|---------------------------------------|/

|---------------------------------|
|---------------------------------|
|---------------------------------| za 4. razem
|-5p7-7777-555-10p12-5p7-7777-7-5-|
|---------------------------------|
|---------------------------------|


Oceń to opracowanie
Ocena czytelników: Doskonały 2 głosy
anonim