0
0

STILL GOT THE BLUES Gary Moore

Tekst piosenki i chwyty na gitarę

  • Chwyty na gitarę Tomasz Łach
    7 ulubionych

Wst?p:
d G C F d E a
[E----------------------------------------------------------------------------------------------------------------------]B--------5--6--6--5-------------3--5--5--3---1-------0--1--3--3--1--0------------------------------------------        
G----7-----------------7-----5----------------------2------------------------2--0--2-------------------------------
D-7------------------------5------------------------------------------------------------------------------------------
A----------------------------------------------------------------------------------------------------------------------
E----------------------------------------------------------------------------------------------------------------------

Use to be so easy
To give my hart away
But I found that the heartache
was the price you have to pay
I found that love is no friend of mine
I should have known after time

Refren:

So long
it was so long ago
But I ve still got the blues for you

Use to be so easy
fall in love again
But I found that the heartache
It s a roll that leeds to pain
I found that love is more than just a game
play and to win
but you lose just the same

So long....

So many years since I seal you face
you will my heart
theres an empty space
Used to be

[E----------------------------------------------------------------------------------------------------------------------]B----------5-6--6--5------------3--5--5---3--1-----0--1---3--3--1-0---------------------------5-6--8--5------          
G------7---------------7-----5--------------------2-----------------------2--0--2---4--5------7---------------7--
D---7----------------------5-------------------------------------------------------------------7---------------------
A----------------------------------------------------------------------------------------------------------------------
E----------------------------------------------------------------------------------------------------------------------


[E----------------------------------------------------------------------------------------------------------------------]B--------3---5--6--5---3--1-----0---1--3--3--3--1--3--3---1---0------------------------------------------------        
G----5-------------------------2----------------------------------------2--0--2-------------------------------------
D-5-------------------------------------------------------------------------------------------------------------------
A----------------------------------------------------------------------------------------------------------------------
E----------------------------------------------------------------------------------------------------------------------

So long....

Golden days come and go
There is one thong I know
I ve still got the blues for you

Zako?czenie:

[E----------------------------------------------------------------------------------------------------------------------]B----------5--6--6--5-------------3--5-6-5--3--1----0--1--3-3--1--0--------------------------5--6--8--5------          
G------7----------------7------5--------------------2----------------------2--0-2--4-5-------7---------------7---
D--7-------------------------5---------------------------------------------------------------7-----------------------
A----------------------------------------------------------------------------------------------------------------------
E----------------------------------------------------------------------------------------------------------------------

[E----------------------------------------------------------------------------------------------------------------------]B--------3--5--6--5--3--1-----0---1--3--3--1--0------------------------------------------------------------------      
G----5-----------------------2-------------------------2--0--2------------------------------------------------------
D-5-------------------------------------------------------------------------------------------------------------------
A----------------------------------------------------------------------------------------------------------------------
E----------------------------------------------------------------------------------------------------------------------


Oceń to opracowanie
Ocena czytelników: Average 3 głosy
Kontrybucje:
Tomasz Łach
Tomasz Łach
anonim
  • Dymek
    Nie marnuj mi stron na swoje debiliczne komentarze. Aż 2 kartki papieru straciłeś?? (biedactwo) Mnie twój nauczyciel obchodzi. Jak grając z moich tabów wydawało ci się że grasz co innego to wina tych twoich zamiodzonych uszu. Ja pisałem tab 1 raz w notatniku to mogło mi się coś pomylić ( twoje też nie są idealne). Błędy: kilka razy zamiast pustej struny to masz na 1 progu (chodzi mi o strunę G) Aha jak piszesz coś w komencie to poskładaj swoje myśli do kupy bo tylko marnujesz mi stronę. Pisze do ciebie ostatni raz żeby cie nie kusiło zaśmiecać mi stronę. Nikt ci nie każe grać z moich tabów. Wstaw swój filmik na youtube i podaj linka to wtedy mogę z tobą gadać małolat.
    · Zgłoś · 12 lat temu
  • Dymek
    Głupi to ty jesteś ale do kwadratu. Widać że mając 11lat nie masz pojęcia o grze na gitarze!! Dodałeś to samo tylko że ja miałem na jednej strunie dokładnie h a ty te same dzwięki wyłapałeś na innych strunach. Acha widzę kilka pomyłek więc je popraw(nie ten próg)
    · Zgłoś · 12 lat temu