Rusza kanał Śpiewnika Wywroty na TouTube!

Właśnie ruszył nasz nowy kanał dla gitarzystów i amatorów ukulele. Dwa razy w tygodniu pojawią się w nim profesjonalne opracowania znanych i lubianych piosenek. Zapraszamy do subskrypcji kanału!

Subskrybuj

Iris Goo Goo Dolls


Intro:
 e|--0----0---0---0---0---0-----0---0-------0---0--0-|
 B|--0----0---0---0---0---0-----0---0-------0---0--0-|
 G|--0----0---0---0---0---0-----0---0-------0---0--0-|
 D|--12---12--12--12--12--11----11--11----11/12-0--0-|
 A|--9----9---9---9---9---9-----9---9------9--9------|
 E|--------------------------------------------------|



 e|-0--0--0--0---0--0----0--0--0--0-|
 B|-0--0--0--0---0--0----0--0--0--0-|
 G|-0--0--0--0---0--0----0--0--0--0-|   Play Twice
 D|-5--5--5--4---4--4----4--4--0--0-|
 A|-5--5--5--5---5--5----5--5--0--0-|
 E|---------------------------------|





Verse:
 e|-----0--------0--------0----------0-----|
B|-------0--------0--------0----------0---|
 G|---------0--------0--------0----------0-|
 D|-------------------------------0--------|
 A|----------------------------------------|
 E|-3----------5--------8------------------|

(And I'd give up forever to touch you)


 e|-----0---------0----------0----------0-----|
 B|-------0---------0----------0----------0---|
 G|---------0---------0----------0----------0-|
 D|----------------------------------0--------|
A|-------------------------------------------|
 E|--0----------10----------8-----------------|

('Cause I know that you feel me somehow)





Chorus:

(Several variations of this repeat 4 times)
 e|-0-----0---0---0---0-----0---0---0---0-----0--0--0--0----0--0--|
 B|-0-----0---0---0---0-----0---0---0---0-----0--0--0--0----0--0--|
 G|-0-----0---0---0---0-----0---0---0---0-----0--0--0--0----0--0--|
 D|-0-----0---0---0---0-----0---0---0---0-----0--0--0--0----0--0--|
 A|-x-----x---x---x---x-----x---x---x---x-----x--x--x--x----x--x--|
 E|-12----12--12--12--12----10--10--10--10----8--8--8--8----8--8--|

(And I don't want the world to see me)





Interlude:
 e|--0----0---0---0---0---0-----0---0------0-0---|
 B|--0----0---0---0---0---0-----0---0------0-0---|
 G|--0----0---0---0---0---0-----0---0------0-0---|
 D|--12---12--12--12--12--11----11--11----11/12--|
 A|--9----9---9---9---9---9-----9---9-----9--9---|
 E|----------------------------------------------|


 e|-0--0--0--0---0--0----0--0--0--0-|
 B|-4--4--4--2---2--2----0--0--0--0-|
 G|-5--5--5--4---4--4----0--0--0--0-|   Play Twice
 D|-5--5--5--5---5--5----4--4--0--0-|
 A|---------------------------------|
 E|---------------------------------|





Verse 2:
 e|-----0--------0--------0----------0-----|
 B|-------0--------0--------0----------0---|
 G|---------0--------0--------0----------0-|
 D|-------------------------------0--------|
 A|----------------------------------------|
E|-3----------5--------8------------------|

(And you can't fight the tears that ain't comin')



 e|-----0---------0----------0----------0-----|
 B|-------0---------0----------0----------0---|
 G|---------0---------0----------0----------0-|
 D|----------------------------------0--------|
 A|-------------------------------------------|
 E|-0-----------10----------8-----------------|

(Or the moment of truth in your lies)



Chorus:

(Repeat 4 times)

 e|-0-----0---0---0---0-----0---0---0---0-----0--0--0--0----0--0--|
 B|-0-----0---0---0---0-----0---0---0---0-----0--0--0--0----0--0--|
 G|-0-----0---0---0---0-----0---0---0---0-----0--0--0--0----0--0--|
 D|-0-----0---0---0---0-----0---0---0---0-----0--0--0--0----0--0--|
 A|-x-----x---x---x---x-----x---x---x---x-----x--x--x--x----x--x--|
 E|-12----12--12--12--12----10--10--10--10----8--8--8--8----8--8--|

 (And I don't want the world to see me)





Interlude Two:

(Play twice)

 e|--------0-----0-----0-----0----------0-----0---0-----0-|
 B|-----------0-----------0----------------0---------0----|
 G|-------------------------------------------------------|
 D|-------------------------------------------------------|
 A|-------------------------------------------------------|
 E|---12-------------14-------------15--------------------|


 e|--------0-----0-----0-----0---------0-----0-------------|
 B|-----------0-----------0---------------0----------------|
 G|--------------------------------------------0------0----|
 D|------------------------------------------------0-----0-|
 A|--------------------------------------------------------|
 E|---12-------------10-------------8----------------------|





Guitar Solo:
 e|-0--0--0--0-----0--0--0--0-----0--0---0---0-0-0-0--0-0-0-0-|
 B|-0--0--0--0-----0--0--0--0-----0--0---0---0-0-0-0--0-0-0-0-|
 G|-0--0--0--0-----0--0--0--0-----0--0---0---0-0-0-0--0-0-0-0-|
 D|-0--0--0--0-----0--0--0--0-----0--0---0---0-0-0-0--0-0-0-0-| x4
 A|-x--x--x--x-----x--x--x--x-----x--x---x---x-x-x-x--x-x-x-x-|
 E|-12-12-12-12----14-14-14-14----14-15--8---8-8-8-8--8-8-8-8-|


 e|-0--0--0--0-----0--0--0--0-----0--0---0---0-0-0-0-0-0-0-0-|
 B|-0--0--0--0-----0--0--0--0-----0--0---0---0-0-0-0-0-0-0-0-|
 G|-0--0--0--0-----0--0--0--0-----0--0---0---0-0-0-0-0-0-0-0-|
 D|-0--0--0--0-----0--0--0--0-----0--0---0---0-0-0-0-0-0-0-0-|
 A|-x--x--x--x-----x--x--x--x-----x--x---x---x-x-x-x-x-x-x-x-|
 E|-12-12-12-12----14-14-14-14----14-15--8---8-8-8-8-8-8-8-8-|


 e|-0-0-0-0-0-0-0-0-0-0-0-0-0-0-0-0-0-0-0-0-0-0-0-0-0-0-0-0-0-|
 B|-0-0-0-0-0-0-0-0-0-0-0-0-0-0-0-0-0-0-0-0-0-0-0-0-0-0-0-0-0-|
 G|-0-0-0-0-0-0-0-0-0-0-0-0-0-0-0-0-0-0-0-0-0-0-0-0-0-0-0-0-0-|
 D|-0-0-0-0-0-0-0-0-0-0-0-0-0-0-0-0-0-0-0-0-0-0-0-0-0-0-0-0-0-|
 A|-x-x-x-x-x-x-x-x-x-x-x-x-x-x-x-x-x-x-x-x-x-x-x-x-x-x-x-x-x-|
 E|-7-7-7-7-7-7-7-7-7-7-7-7-7-7-8-8-8-8-8-8-8-8-8-8-8-8-8-8-8-|



 e|-0--0--0--0--0--0--0--0--0--0--0--0--0--0--0--|
 B|-0--0--0--0--0--0--0--0--0--0--0--0--0--0--0--|
 G|-0--0--0--0--0--0--0--0--0--0--0--0--0--0--0--|
 D|-0--0--0--0--0--0--0--0--0--0--0--0--0--0--0--|
 A|-x--x--x--x--x--x--x--x--x--x--x--x--x--x--x--|
 E|-12-12-12-12-12-12-12-12-12-12-12-12-12-12-12-|


 e|-0-0-0-0-0-0-0-0-0-0-0-0-0-0-0-0-0-0-0-0-0-0-0-0-0-0-0-0-|
 B|-0-0-0-0-0-0-0-0-0-0-0-0-0-0-0-0-0-0-0-0-0-0-0-0-0-0-0-0-|
 G|-0-0-0-0-0-0-0-0-0-0-0-0-0-0-0-0-0-0-0-0-0-0-0-0-0-0-0-0-|
 D|-0-0-0-0-0-0-0-0-0-0-0-0-0-0-0-0-0-0-0-0-0-0-0-0-0-0-0-0-|
 A|-x-x-x-x-x-x-x-x-x-x-x-x-x-x-x-x-x-x-x-x-x-x-x-x-x-x-x-x-|
 E|-8-8-8-8-8-8-8-8-8-8-8-8-8-8-7-7-7-7-7-7-7-7-7-7-7-7-7-7-|


 e|-0--0--0--0--0--0--0--0--0--0--0--0--0--0--0--|
 B|-0--0--0--0--0--0--0--0--0--0--0--0--0--0--0--|
 G|-0--0--0--0--0--0--0--0--0--0--0--0--0--0--0--|
 D|-0--0--0--0--0--0--0--0--0--0--0--0--0--0--0--|
 A|-x--x--x--x--x--x--x--x--x--x--x--x--x--x--x--|
 E|-12-12-12-12-12-12-12-12-12-12-12-12-12-12-12-|



 e|-0--0---0---0---0--0--0--0--0--0--0--0--|
 B|-0--0---0---0---0--0--0--0--0--0--0--0--|
 G|-0--0---0---0---0--0--0--0--0--0--0--0--|
 D|-0--0---0---0---0--0--0--0--0--0--0--0--|
 A|-x--x---x---x---x--x--x--x--x--x--x--x--|
 E|-12-12--14--14--15-17-17-17-15-15-14-14-|



 e|-0-0-0-0-0-0-0-0-0-0-0-0-0-0-0-0-0-0-0-0-0-0-0-0-0-0-0-0-
 B|-0-0-0-0-0-0-0-0-0-0-0-0-0-0-0-0-0-0-0-0-0-0-0-0-0-0-0-0-|
 G|-0-0-0-0-0-0-0-0-0-0-0-0-0-0-0-0-0-0-0-0-0-0-0-0-0-0-0-0-|
 D|-0-0-0-0-0-0-0-0-0-0-0-0-0-0-0-0-0-0-0-0-0-0-0-0-0-0-0-0-|
 A|-x-x-x-x-x-x-x-x-x-x-x-x-x-x-x-x-x-x-x-x-x-x-x-x-x-x-x-x-|
 E|-8-8-8-8-8-8-8-8-8-8-8-8-8-8-7-7-7-7-7-7-7-7-7-7-7-7-7-7-|



 e|-0--0--0--0--0--0--0--0--0--0--0--0--0--0--0--|
 B|-0--0--0--0--0--0--0--0--0--0--0--0--0--0--0--|
 G|-0--0--0--0--0--0--0--0--0--0--0--0--0--0--0--|
 D|-0--0--0--0--0--0--0--0--0--0--0--0--0--0--0--|
 A|-x--x--x--x--x--x--x--x--x--x--x--x--x--x--x--|
 E|-12-12-12-12-12-12-12-12-12-12-12-12-12-12-12-|



Repeat this several times:

 e|--0-----0--0--0--0--0-----0--0--0--0--0-----0--0--0--0--0--|
 B|--0-----0--0--0--0--0-----0--0--0--0--0-----0--0--0--0--0--|
 G|--0-----0--0--0--0--0-----0--0--0--0--0-----0--0--0--0--0--|
 D|--0-----0--0--0--0--0-----0--0--0--0--0-----0--0--0--0--0--|
 A|--x-----x--x--x--x--x-----x--x--x--x--x-----x--x--x--x--x--|
 E|--12----12-12-12-12-14----14-14-14-14-15----15-15-15-15-15-|



 e|--0-----0--0--0--0--0-----0--0--0--0--0-----0--0--0--0--0--|
 B|--0-----0--0--0--0--0-----0--0--0--0--0-----0--0--0--0--0--|
 G|--0-----0--0--0--0--0-----0--0--0--0--0-----0--0--0--0--0--|
 D|--0-----0--0--0--0--0-----0--0--0--0--0-----0--0--0--0--0--|
 A|--x-----x--x--x--x--x-----x--x--x--x--x-----x--x--x--x--x--|
 E|--12----12-12-12-12-10----10-10-10-10-8-----8--8--8--8--8--|



 Last one before chorus:
 e|----0-----------0-----------0---------|
 B|-------0-----------0-----------0------|
 G|----------0-----------0-----------0---|
 D|--------------------------------------|
A|--------------------------------------|
 E|--0-----------2------------3----------|


 e|----0-----------0-----------0---------|
 B|-------0-----------0-----------0------|
 G|----------0-----------0-----------0---|
 D|--------------------------------------|
 A|---9----------------------------------|
 E|--------------10----------8-----------|





Chorus:

 e|-0-----0---0---0---0-----0---0---0---0-----0--0--0--0----0--0--|
 B|-0-----0---0---0---0-----0---0---0---0-----0--0--0--0----0--0--|
 G|-0-----0---0---0---0-----0---0---0---0-----0--0--0--0----0--0--|
 D|-0-----0---0---0---0-----0---0---0---0-----0--0--0--0----0--0--|
 A|-x-----x---x---x---x-----x---x---x---x-----x--x--x--x----x--x--|
 E|-12----12--12--12--12----10--10--10--10----8--8--8--8----8--8--|





Outro:
 e|--0-----0--0--0--0--0-----0--0--0--0--0-----0--0--0--0--0--|
 B|--0-----0--0--0--0--0-----0--0--0--0--0-----0--0--0--0--0--|
 G|--0-----0--0--0--0--0-----0--0--0--0--0-----0--0--0--0--0--|
 D|--0-----0--0--0--0--0-----0--0--0--0--0-----0--0--0--0--0--|
 A|--x-----x--x--x--x--x-----x--x--x--x--x-----x--x--x--x--x--|
 E|--0-----0--0-12-12-14----14-14-14-14-15----15-15-15-15-15-|



 e|--0-----0--0--0--0--0-----0--0--0--0--0-----0--0--0--0--0--|
 B|--0-----0--0--0--0--0-----0--0--0--0--0-----0--0--0--0--0--|
 G|--0-----0--0--0--0--0-----0--0--0--0--0-----0--0--0--0--0--|
 D|--0-----0--0--0--0--0-----0--0--0--0--0-----0--0--0--0--0--|
 A|--x-----x--x--x--x--x-----x--x--x--x--x-----x--x--x--x--x--|
 E|--12----12-12-12-12-10----10-10-10-10-8-----8--8--8--8--8--|


 e|--0-----0--0--0--0--0--0--|
 B|--0-----0--0--0--0--0--0--|
 G|--0-----0--0--0--0--0--0--|
 D|--0-----0--0--0--0--0--0--|
 A|--x-----x--x--x--x--x--0--|
 E|--12----10-8--7--5--3--2--|





 e|----0-----------0-----------0---------|
 B|-------0-----------0-----------0------|
 G|----------0-----------0-----------0---|
 D|--------------------------------------|
 A|--------------------------------------|
 E|---0-----------2-----------3----------|



 e|----0-----------0-----------0---------|
 B|-------0-----------0-----------0------|
 G|----------0-----------0-----------0---|
 D|--------------------------------------|
 A|---9----------------------------------|
 E|--------------10----------8-----------|

Oceń to opracowanie
Ocena czytelników: Doskonały 2 głosy
Kontrybucje:
Dalila
Dalila

Dodaj własne wykonanie

Umiesz zagrać tą piosenkę? Nagraj swoje wykonanie i pokaż innym jak grasz!
anonim