Wakacyjny Konkurs Śpiewnikowy
Wakacyjny Konkurs Śpiewnikowy
Popraw Opracowanie Usuń
Transponuj
0

When I Come Around BASS TAB Green Day

Tekst piosenki

  • Tekst piosenki nianka
Intro
G|----4h5-4-0---|
D|--5-----------|
A|--------------|
E|--------------|

Verse
G|-------5h4-0--------------------------------|
D|-5-5-5--------------4h5-4-0-----------------|
A|--------------5-5-5----------7-7-7/3~h4/5---|
E|--------------------------------------------|

Chorus	                   x2 Ending 1 x1 Ending 2 x1
G|---------------------------|------------|-5h4~--|
D|---------------------------|--5h7-5-----|-------|
A|---------------------------|--------7---|-------|
E|-5-5-5-5-5-5-5--7/8-8-8-8--|------------|-------|

Intro
Verse x10
Chorus
Verse x10
Chorus
Verse x4
Chorus
Verse x4

Oceń to opracowanie

Kontrybucje
nianka

Wakacyjny Konkurs Śpiewnikowy

Pula nagród w konkursie ponad 10.000 zł!
Przysyłaj opracowania piosenek i zdobądź bony na zakupy w sklepie muzycznym.
Zapoznaj się z regulaminem konkursu.
anonim