Open your eyes Guano Apes

Open Your Eyes - Guano ApesOpen Your Eyes - Guano Apes



Wstęp(4x):
(graj z efektem wahwah a druga gitara tylko pierwsze dwa razy)

+------------------
|Gitara1(wahwah):
|e|--x--x-x-x-x---x--x-x-x-x---|
|B|--x--x-x-x-x---x--x-x-x-x---|
|G|--x--x-x-x-x---x--x-x-x-x---|
|D|--x--4-4-5-5---5--7-7-9-9---|
|A|--2--2-2-3-3---3--5-5-7-7---|
|E|--0--x-x-x-x---x--x-x-x-x---|
|Gitara2(wahwah): 4 x wstęp
|e|----------------------------|
|B|----------------------------|
|G|-----4-4-5-5---5--7-7-9-9---|
|D|--2-------------------------|
|A|----------------------------|
|E|----------------------------|
+------------------

Wstęp bas:
e|--E5x-----|
B|--x-----|
G|--x-----|
D|--2  ---|
A|--2  ---|
E|--0  ---|
=20

Zwrotka 1:
e|--E5x-x-x-x-x--x-x-x-x-x--|
B|--x-x-x-x-x--x-x-x-x-x--|
G|--x-x-x-x-x--x-x-x-x-x--|
D|--2-x-x-x-x--2-x-x-x-x--|
A|--2-x-x-x-x--2-x-x-x-x--|
E|--0-x-x-x-x--0-x-x-x-x--|



E5' G5 E5
e|-----------------x----x----x-------------|
B|-----------------x----x----x-------------|
G|-----------------x----x----x-------------|
D|-----------------9----5----2-------------|
A|-----------------7----5----2-------------|
E|-----------------0----3----0-------------|


Refren:
E5 B5 C5 C5 D5 E5'=20
e|--x--x-x-x-x---x--x-x-x-x----------------|
B|--x--x-x-x-x---x--x-x-x-x----------------|
G|--x--4-4-5-5---5--7-7-9-9----------------|
D|--2--4-4-5-5---5--7-7-9-9----------------| x 4
A|--2--2-2-3-3---3--5-5-7-7-(slide to E5)--|
E|--0--x-x-x-x---x--x-x-x-0----------------|

Bas:
e|--E5x----------------|
B|--x----------------|
G|--x----------------|
D|--2~~--------------|
A|--2~~--------------|
E|--0~~--(let ring)--|


Zwrotka 2:


(break) E5'G5 E5
e|------------------x--x--------|
B|------------------x--x--x-----|
G|------------------x--x--x-----|
D|------------------9--5--2-----|
A|------------------7--5--2-----|
E|------------------0--3--0-----|

Refren:
e|--------------------------|
B|--8-8--7-7--8-8-7---------|
G|------------------8-8-----| x 4
D|--------------------------|
A|--------------------------|
E|--------------------------|



Solo: E5'G5 E5
e|------------------------x--x--x---|
B|------------------------x--x--x---|
G|------------------------x--x--x---|
D|------------------------9--5--2---|
A|------------------------7--5--2---|
E|------------------------0--3--0---|


Graj refren dwa razy i potem końcówkę:

e|--E5x-x--x-x--x-x----|
B|--x-x--x-x--x-x----|
G|--x-x--x-x--x-x----|
D|--2-2--2-2--2-2~---|
A|--2-2--2-2--2-2~---|
E|--0-0--0-0--0-0~---|



Oceń to opracowanie
Kontrybucje:
Aya.r.l.
Aya.r.l.
anonim