Popraw Opracowanie
Transponuj
0

Fantasmagoria Hunter

Główny riff:

d:---------------------------------|
A:---------------------------------|
F:---------------------------------|
C:-2-----------2-------------2-----|
G:-2---0-2-3---2---0-2-3/5\3-------|
D:-0-----------0-------------------|



d:--------------------------------------------------------------|
A:--------------------------------------------------------------|
F:--------------------------------------------------------------|
C:--------------------------------------------------------------|
G:-2------22--2--------2---------3------33--3--------3----------|
D:-0-0000-00--0-000000-0-000000--0-0000-00--0-000000-0-000000---|
PM ..........................................................


Refren:

d:---------------------------|
A:---------------------------|
F:---------------------------|
C:-2--2--2--2--3-3-5-5-5-----|
G:-2--2--2--2--3-3-5-5-5-----|
D:-0--0--0--0--1-1-3-3-3-----|




d:--------------|
A:--------------|
F:--------------|
C:--------------|
G:-33-333-333---|
D:-11-111-111---|


d:-----------------------------------|
A:-----------------------------------|
F:-----------------------------------|
C:-2----5---4-5-4---3-4-3------------|
G:-2----5---4-5-4---3-4-3------------|
D:-0----3---2-3-2---1-2-1------------|



Witajcie w Kraju Umarłych!
Tutaj śmiech zniewoli Wasze lęki!
A marzenia i sny...
Spełni Wielki Papier!!!

On jest naszym bogiem, który dobrze wie
Jak ukoić...
By nie zwątpił nikt!!!
Żeby nie zwątpił już nikt!!!

Fantasmagoria... fantasmagoria...

Źle jest tylko gdy ktoś...
Poukłada puzzle i odkryje, że bóstwo...
To tylko Zwykły Papier!!!

Wtedy mrok okryje niewdzięczników tłum
Wszyscy zginą!!!
Żeby nie zwątpił już nikt!!!
Żeby nie zwątpił już nikt!!!

Fantasmagoria... fantasmagoria...
fantasmagoria... fantasmagoria...

Szaleństwo weszło w nasze głowy, bo on...
... jest spełnieniem niespełnionych wciąż marzeń...
Ojcze - ukoi nas!

Ty jesteś naszym bogiem, który dobrze wie
Jak ukoić...
I nie zwątpi już nikt!!!
I nie zwątpi już nikt!!!

Fantasmagoria... fantasmagoria...
fantasmagoria... fantasmagoria...

Oceń to opracowanie

Kontrybucje
Gepcia

Wakacyjny Konkurs Śpiewnikowy

Pula nagród w konkursie ponad 10.000 zł!
Przysyłaj opracowania piosenek i zdobądź bony na zakupy w sklepie muzycznym.
Zapoznaj się z regulaminem konkursu.
anonim