0
0

Wasting love Iron Maiden

[Intro]
e C D D x4
e C e C x4

[Zwrotka 1]
e|e -------------------C-----------------e ---------------------------------------|
B|---------------------------3---------------------------------3-------------|
G|---------0-------------0-------0------------0------------0-----------------| x2
D|-----4-----4---4-----4---4---4---4------4-----4---4----4---4---------------|
A|---2---2-----2-----3------------------2---2-----2----3---------------------|
E|-0----------------------------------0--------------------------------------|

ea7 |---------------------------------------------------------------------------|
B|---------1----------------3---------------1---------------3----------------|
G|-----0-------0--------0-------0-------0-------0-------0-------0------------|
D|---2---2---2---2----4---4---4---4---2---2---2---2---4---4---4---4----------|
A|-0----------------0---------------0---------------0------------------------|
E|---------------------------------------------------------------------------|

e Maybe oCne day I'll be an hoe nest man C 
e Up till nCow I'm doing the be est I cCan
a7 Long roads, long days of se unrise to sCunset
e Sunrise to suCnset

[Zwrotka 2]
e Dream on broCthers, whe ile you caCn
e Dream on sCister, I hope you fie nd the oCne
a7 All of our lives, covered up quickly
By the te idesC of te ime

[Refren]
e Spend your dCays full of Demptiness   G  F 
e Spend your yCears full of lDoneliness G  D/F#    
e Wasting lCove in a deDsperate careGss D 
e Rolling sChadows of nDight  C 

[Interlude]
D C e7 x3
D C

[Zwrotka 3]
e Dream on broCthers, whe ile you caCn
e Dream on sCister, I hope you fie nd the oCne
a7 All of our lives, covered up quickly
By the te idesC of te ime  C 
a7 Sands are flowing and the lines

Are in your hand
In your ee yes I see the hCunger and the
Despe erate cry that tCears the night

[Refren]
e Spend your dCays full of Demptiness   G  F 
e Spend your yCears full of lDoneliness G  D/F#    
e Wasting lCove in a deDsperate careGss D 
e Rolling sChadows of nDight  C 

[Interlude]
D C e7 x3
D C

[Instrumental]
e C D D x3
e C D C5 D5

PM------------------------------|
e|-----------------------------------|
B|---------------------------3-------|
G|---------0-------------0-----------| x4
D|-----4-----4---------4---4---------|
A|---2---2-----2-3-------------------|
E|-0---------------------------------|

[Guitar Solo]
e C a D b x4

[Refren]
e Spend your dCays full of Demptiness   G  F 
e Spend your yCears full of lDoneliness G  D/F#    
e Wasting lCove in a deDsperate careGss D 
e Rolling sChadows of nG5ight B5  

e Spend your dCays full of Demptiness   G  F 
e Spend your yCears full of lDoneliness G  D/F#    
e Wasting lCove in a deDsperate careGss D 
e Rolling sChadows of nDight  C 

[Outro]
D C e7


Oceń to opracowanie
Kontrybucje:
Kamil Grabiński
Kamil Grabiński
anonim