0
0

The Hanging tree James Newton Howard

Ukulele TAB

A------3-5--------------------------3-5------3--
E-3-5-------3-5-5-5-3-0--(0)-3-5-5------3-5-5--5
C-----------------------------------------------
G-----------------------------------------------

A-7-5-3-5-3-------------------------3-5-------------
E----------5-3--5-5-5-3-0-(0)-3-5-5----3-5-5-5-3-5--
C---------------------------------------------------
G---------------------------------------------------


Are you, are you a d
Coming to the tree a E
They strung up a Man a d
They say who murdered three E a
Strange things did happen here a F
No stranger would it be a E
If we met at midnight a d
In the hanging tree E a

Are you, are you
Coming to the tree
Where dead man called out
For his love to flee
Strange things did happen here
No stranger would it be
If we met at midnight
In the hanging tree

Are you, are you
Coming to the tree
Where I told you to run
So we'd both be free
Strange things did happen here
No stranger would it be
If we met at midnight
In the hanging tree

Are you, are you
Coming to the tree
Wear a necklace of hope
Side by side with me
Strange things did happen here
No stranger would it be
If we met at midnight
In the hanging tree

Are you, are you
Coming to the tree
Where I told you to run
So we'd both be free
Strange things did happen here
No stranger would it be
If we met at midnight
In the hanging tree

Are you, are you
Coming to the tree
Where they strung up a man
They say who murdered three
Strange things did happen here
No stranger would it be
If we met at midnight
In the hanging tree

Are you, are you
Coming to the tree
Where dead man called out
For his love to flee
Strange things did happen here
No stranger would it be
If we met at midnight
In the hanging tree

Oceń to opracowanie
Kontrybucje:
sewek
sewek
anonim

Najpopularniejsze piosenki James Newton Howard