0
0

Fire Jimi Hendrix

Tekst piosenki i chwyty na gitarę

  • Chwyty na gitarę Punko
#----------------------------------PLEASE NOTE---------------------------------#
#This file is the author's own work and represents their interpretation of the #
#song. You may only use this file for private study, scholarship, or research. #
#------------------------------------------------------------------------------##
*****************************************************************************
Song : FIRE
Artist(s) : THE JIMI HENDRIX EXPERIENCE
Tabbook : HENDRIX RECORDED VERSIONS : RADIO ONE
Copyright : 1991 BELLA GODIVA MUSIC INC.
Tabbed by : Paul van de Berg (P.vdBerg@kub.nl)
Date : 10-10-1994
Remark(s) : Song intervals do not match recording
hb = hold bend not half bend (=wb)
*****************************************************************************
Mitch Mitchell, jazz/rock drumming pioneer, gets another chance
to display his chops, this time within the context of the song via the breaks
provided during the intro and also the verses. As usual he's right on the
money, and furthermore, when he's not doing explosivee solos or fills, he is
constantly propelling Jimi's inspired playing to even greater heights.
The extent of his contribution to the overall sound of The Experience is
often overlooked and, as ace drummer/transcriptionist Dave Hershey would
agree, still some of the most adventurous rock drumming ever heard.
On the origional studio version from 'Are you Experienced?' there are two
lead guitars playing single notes in unison during the bridge solo.
To better replicate the sound of twin guitars in this version, you'll note
that Jimi uses unison bends throughout this section and in his ad-libbed
outro solo. If you ever want to fatten up the sound of one of your own
solos or, in fact, any melody, unison bends are definitely the ticket.
Another means to the same end is octave-doubling, which was popularized by
the late Wes Montgomery, and occurs in this song during the intro.
Peace, Paul.

FIRE
Words and Music by Jimi Hendrix

Fast rock, tempo = 168
Intro
N.C.
e---------------------------------------------------------------------------
[B---------------------------------------------------------------------------]G--13-12\-10s12---------13-12s19--10s12-------------------------------------
D---------------12-12\------------------12-12\-----10-12----12--------------
A--11-10\--8s10---------11-10/-----8s10---------12--------------------------
E---------------10-10\------------------10-10\------------------------------

1st verse You don't care for me, I don't care about that
e---------------------------------------------------------------------------
B---------------------------------------------------------------------------
G---------------------------------------------------------------------------
[D---------------------------------------------------------------------------]A-------3--5--5---------3--5--5---------------------------------------------
E----5---------------5------------------------------------------------------

Ya' got a new fool, I like it like that I have only one
e---------------------------------------------------------------------------
B---------------------------------------------------------------------------
G---------------------------------------------------------------------------
[D---------------------------------------------------------------------------]A-------3--5--5--------------------------------------3--5--5----------------
E----5--------------------------------------------5-------------------------

a burnin' desire Let me stand next to your pyre!
[e---------------------------------------------------------------------------]B---------------------------------------------------------------10v---------
G-----------------------------------------------------------12bh-------(12)-
[D---------------------------------------------------------------------------]A-----------------------3--5--5---------------------------------------------
E--------------------5------------------------------------------------------

Chorus Let me stand next to your fire! etc.--> see lyrics at end file
e---D(add9)--10--12--10-C(add9)-10--10\-----------------D-----10--10--1[C(add9)/A]0--10--10-----------
B-----10--10--10---8---8\----------------------10--10--10---8---8-8---12-12-
G-----11--11--11---9---9\----10-12s10----------11--11--11---9---9-9---12-12s
D-----12------12--10------------------12----12-----12------10------/12------
A------------------------/12------------------------------------------------
E-10-------------------------------------10---------------------------------
T T

e-------D------10-10-10-[C(add9)/A]10-10---10------10--D(add9)--------10----12-[C(add9)/A]---10-----------
B-------------10-10-10-10--8---8---/12-------------10-10-10-10--8-8\--------
Gs10----------11-------11--9-9----9-------12-------11-11-11-11--9-9\--------
D----12-------12----------10--------------------------12----12--------------
A--------------------------------------------------------------------10s12--
E-------10-10--------------------------------10-10--------------------------
T T
2nd Verse
D N.C.
e--------------10-----------------------------------------------------------
B--------------10-----------------------------------------------------------
G--10-12s10----11-----------------------------------------------------------
D--10-12s10-12-12--------10-12-10s12-------10-12--10s12------10-12-12-------
A-----------12-12----/12----------------12----------------12----------------
E--------------10-----------------------------------------------------------


e-------------------------------------------10v-----------------------------
B---------------------------------------12b---------------------------------
[G---------------------------------------------------------------------------]D-----10-12-10s12-------10-12-12--------------------------------------------
A--12----------------12-----------------------------------------------------
E---------------------------------------------------------------------------

Chorus
e---D10-10----10-1C(add9)0-10-----------------------------------C(add9)---10---------------
B---10-10----10--8--8-8-8--------------------10----10-------8--8\-----10-12-
G---11----11-11--9----9------10-12s10--------11-11-11--11---9--9\-----10-12s
D---12----12----10--------------------12-----12-12-12--12--10-10\--/12------
A------------------------/12------------------------------------------------
E-10------------------------------------10-10-------------------------------
T T

e-------D------10-------C(add9)---10---10-----10-12s10--D---10------------C(add9)-10--------
B-------------10-10-10-10--8---8---/12-------------10-10-10-10-----8--------
Gs10----------11----11-11--9------9-----------12---11-11-11-11-11--9--------
D----12-------12----12----10-----------------------12-12-12-12-12-10--------
[A---------------------------------------------------------------------------]E--------10-------------------------------------10--------------------------
T T
Bridge
e---C---D---------------------C(add9)--10--------A-----------5--------A5---C5-------------
B-----------10-----------------8--------5----------5--5---------------------
G---9s11----11-----------------9--------6----------6--6---------------------
D--10s12----12--------(12)\10-10--------7-------------7---------------------
A---------------------------------------7-------------7------7s10-----------
E------------------------------8--------5--------------------5s8-------8\---
(fuzz on) T Let ring

Guitar Solo:
N.C. (E)
e-----12v-----12---------------------------12v-----12-----------------------
B--15b----15hb--(15cb)-(15)------------15b-----15b----15--12-------12--15bv-
G---------------------------12-(12v)---------------------------14b----------
D---------------------------------------------------------------------------
A---------------------------------------------------------------------------
E---------------------------------------------------------------------------

e------12-----12-----15------15-------------12-----12-----------------------
B--15b----15hb--15cb----15cb----15hb(15)-15b---15hb--(15)s12-----12---------
G------------------------------------------------------------14b---12v-(12)\
D---------------------------------------------------------------------------
A---------------------------------------------------------------------------
E---------------------------------------------------------------------------

N.C. That's what I'm talking about!
e---------------------------------------------------------------------------
[B---------------------------------------------------------------------------]G--13-12\---10s12-------------------13----------12\----10s12----------------
D------------------12-12--------------------------------------12-12\------10
A--11-10\----8s10-------------------11----------10\-----8s10-----------12---
E------------------10-10--------------------------------------10-10\--------
(fuzz off)


e---------------------------------------------------------------------------
[B---------------------------------------------------------------------------]G-------------------------------------------------------------------12------
D---12-10s12--------10-12-10s12-----10-12-10s12------10-12-12----10-12-10s12
A----------------12---------------12--------------12-----------12-----------
E---------------(12)--------------------------------------------------------

(w/bar -2.5)
[e---------------------------------------------------------------------------]B------------------------------0--------------------------------------------
G------------------------------0--------------------------------------------
D------10-12-12----------------0--------------------------------------------
A---12----------------------------------------------------------------------
[E---------------------------------------------------------------------------] (fuzz on)                                               

Chorus
e-10D--10---------C(add9)-10--10------------------D--10-----12--1C(add9)0--10---C------------
B-10--10--10--10---8---8--------------------10-10--10--10---8---8\----12-12s
G-11--11--11--11---9---9---------------0----11-11--11-------9---9\----12-12s
D-12--12--12--12--10-----10------12----0----12-----------------10\-/12------
A--------------------------10s14---14\--------------------------------------
E-10-------------------------------------10---------------------------------
T T

e-------D---------------C-------------10----------D----------C(add9)--10--------------
Bs10------10-10-10-10--8--8-8-10s12---12s10--------10-10-10--8--8\----------
Gs10------11-11-11-11--9--9------------------------11-11-11--9--9\------10--
D----12---12----12----10-10-----------------12-----12-12----10-10\--/12-----
[A---------------------------------------------------------------------------]E------10---------------------------------------10--------------------------
T T

Guitar Solo
E(add9) N.C.
e---------------------------14-12--------12v---------12-------12-----12-\---
B----------12---------12-12-12-12----15b-------------12---15b----15b----\0--
G-12s10-10-12---------13----13-13--0-----------12v---14b--------------------
D-------10------------14----------------------------------------------------
[A---------------------------------------------------------------------------]E---------------12-12-------------------------------------------------------
T

e-----------------10-10-----------------------------------------10----10v---
B--------------13v-----13s10---10-13s10-----------------13qb-13b--13b-------
G--/11v-(11)s10-------------12b---------12hb(12)10---10---------------------
D-------------------------------------------------12------------------------
A---------------------------------------------------------------------------
E---------------------------------------------------------------------------

e--[(E)]---12-12----12-12----12----12v----12---12----12--------------------------
B--15b---15-15b---15-15b---15b----15b--15b--15hb--(15)---12----12--12v------
G-----------------------------------------------------14b---14b----12v------
D---------------------------------------------------------------------------
A---------------------------------------------------------------------------
E---------------------------------------------------------------------------


e---------10---------10---------------------------------------------10-10-10
B-----13hb----(13cb)----(13)s10------10------------------------10---10-10-10
G--0----------------------------12hb----(12)--10v--------------10-----------
D-------------------------------------------------12s10----10v----12--------
A-------------------------------------------------------12------------------
E---------------------------------------------------------------------------


e-10--10------10------------------------------------------------------------
B-10--10--13b----13s10-----13s10-----------------------13------13---13v-----
G----------------------12b-------12hb(12)-10----10-12b----12wb---12b--------
D--------------------------------------------12-----------------------------
A---------------------------------------------------------------------------
E---------------------------------------------------------------------------

Outro
[e---------------------------------------------------------------------------]B-13s12--12\----------------------------------------------------------------
G-13s12--12\----10-12-------------13---12s19--10s12------------13--12\------
D----------------------12-12------------------------12-12-------------------
A----------------8-10----------X--11---10------8s10---------X--11--10\------
E----------------------10-10\-----------------------10-10\------------------

e------------------------------Dsus4---------D7--------10--------------------------
B---------------------------------------------10----------------------------
G-10s12---------13--12\---10------12---11b--12-------12-10qb----------------
D--------12-12--------------------12---10--------------------12--10---------
A--8s10---------11--10\----8--10-------------------------------------12--11-
E--------10-10----------------10--10---10-----------------------------------


e---------------------------------------------------------------------------
B---------------------------------------------------------------------------
G---------------------------------------------------------------------------
[D---------------------------------------------------------------------------]A--10--8v-------------------------------------------------------------------
E---------------------------------------------------------------------------

Explanation of the musical symbols :
7s9 slide from 7th fret to 9th
7\ slide from 7th fret down
7/ slide from 7th fret up
7bh bend 7th and hold till ghost note or cb
T with thumb (E-string)
7b bend 7th 1 full step
10v vibrato 10th
15bv full bend and vibrato
15cb compound bend and release (every note picked) (full)
3qb bend 1/4step
3wb half bend

Lyrics

Announcer : The Jimi Hendrix Experience sounding off again now with one of
Jimi's own called Fire!)

1st verse :
You don't care for me, I don't care about that.
Ya' got a new fool, I like it like that.
I have only one a burnin' desire.
Let me stand next to your pyre!

Chorus : (Background vox sing : Let me stand next to your fire!)
Let me stand baby.
Oh let me stand.
Ya' got to let me stand.
Aw shucks!
Yeah!

2nd verse :
Ya' say your mom ain't home, ya can't let me in.
Well I had you before, I don't need you again.
I have only one a burnin' desire.
Let me stand next to your fire!

1x Chorus

Bridge :
Move over Rover
And let Jimi take over.
You know what I'm talking about!
That's what I'm talking about!

Guitar solo

3rd verse :
Ya try to give me your money, you better save it babe.
Save it for a rainy day.
I have only one a burnin' desire,
Let me stand next to your fire!

1x Chorus
Guitar solo
Outro.

That's it. Try to TAB Yellow Ledbetter properly for me, will ya?
Oh yeah....send stuff (questions, remarks and other shit) to my mail
address : P.vdBerg@kub.nl
C-ya :)

#----------------------------------PLEASE NOTE---------------------------------#
#This file is the author's own work and represents their interpretation of the #
#song. You may only use this file for private study, scholarship, or research. #
#------------------------------------------------------------------------------##
Just giving back a little of what I take from the net !!
Questions, Comments or tab suggestions please forward to
Vincent M. Veltri veltri@vnet.ibm.com
==================================================================

FIRE Jimi Hendrix

Verse
Alright Now dig this baby
You don't care for me I don't care about that
You gotta new fool HA! I like it like that
I have only one burning desire
Let me stand next to your fire

Chorus
DLet me stand next to your Cfire (all)

Let me stand next to your fire (Jimi)

Let me stand next to your fire (all)

Let me stand baby (Jimi)

Let me stand next to your fire (all)

Let me stand

Let me stand next to your fire

Yeah baby (Jimi)

Verse
Listen here baby and stop acting so crazy
You say you mum ain't home, It ain't my concern
Just play with me and you won't get burned
I have only one itching desire
Let me stand next to your fire

Chorus
DOh!   mover over RoverC and let Jimi take over
A Yeah you know what I'm taking 'bout
C Yeah get on with baby

Solo

Verse
Now listen baby you try to gimme your money
you better save babe, Save it for your rainy day
I have only one buring desire
Let me stand next to your fire

Chorus

Solo

Yeah!
You better move over baby
I ain't gonna hurt you baby
Ah I ain't taking about your old lady
Oh yes this Jimi taking to you
Yeah baby#----------------------------------PLEASE NOTE---------------------------------#
#This file is the author's own work and represents their interpretation of the #
#song. You may only use this file for private study, scholarship, or research. #
#------------------------------------------------------------------------------##
From: mike@honet7.att.com


===========================================================================
FIRE

Original music by Jimi Hendrix
Performance by The Jimi Hendrix Experience
Bass performance by Noel Redding
===========================================================================

PRE-VERSE
h q q q q q e e e Q q q
+-------+------------+----------+
|-R-R-6-|*-5-R-R-3-5-|-----R-6-*|
|-------|*-----------|-5-5-----*|
+-------+------------+----------+

VERSE
h q e^e^e q H
+------------+------+
|*-R-R-------|---R-*|
|*-------3-5-|-5---*|
+------5-----+------+

CHORUS
q q e e e e+ e e e e e e e e
+--------------+------------------+
|*-------------|-----------------*|
|*-5-5---------|-----2-2-3-3-4-4-*|
+------2-3-4-5-+-5-5--------------+


BRIDGE INTO SOLO
q q q q 2 q q q q 2 q q q q 2 q q q q e e e e e e e e
+-----------+-----------+---------------+---------+-----------------+
|*---------*|*---------*|*-------------*|---------|-----------------|
|*-5-5-5-5-*|*-3-3-3-3-*|*-12-12-12-12-*|-3-3-3-3-|-3-3-3-3-3-3-3-3-|
+-----------+-----------+---------------+---------+-----------------+


SOLO
q q e e e e+ e e e e e e e e
+--------------+------------------+
|*-------------|-----------------*|
|*-7-7---------|-----4-4-5-5-6-6-*|
+------4-5-6-7-+-7-7--------------+


==========================================================================
PERFORMANCE NOTES: (Sequence of patterns)

Pattern Repeats
------- -------
Pre-verse Two
Verse Six
Chorus Four

Verse Six
Chorus Four

Bridge into Solo One
Solo Four

Pre-verse Two
Verse Six
Chorus Four

Solo Two
Chorus Two
Solo Two
Pre-Verse One
Chorus One
Solo One [Fade out...]
==========================================================================

__ Created using the Bass Tab Creator
+|oo|+ by Mario D'Alessio (motcid!marble!dalessio)
+|oo|+
|| NOTES:
||
|| Capital durations are dotted notes
|| (equal to 1.5 times the duration value)
||
|| +----+ +----+
_ || _ |*--*+ = MEASURE |4:--| = TIME
\\_||_// |*--*+ REPEATS |4:--| SIGNATURES
| [] | +----+ +----+
| || |
/ [] \ + = TIE ^ = TRIPLET > = BEND
\______/ H = HAMMER ON \ = SLIDE TO FRET R = Rest
P = PULL OFF \X = SLIDE TO NOWHERE ~ = Trill


Oceń to opracowanie
Kontrybucje:
Punko
Punko
anonim