Red House Jimi Hendrix

Tekst piosenki

  • Tekst piosenki Punko

/ a slide
~ wiggle yer fingers
h hammer on
p pull off
' bend
- buy SubG (that's me) lots of beer



|-----11----11----------11----11----11-|-------10----10-----10-----10-----10-|
|-/10-10----------10----10----10----10-|-10/9--9-----9---9--9------9---9--9--|
|-/11----11----11----11----11----11----|-11/10----10-----------10---------10-|
|--------------------------------------|-------------------------------------|
|--------------------------------------|-------------------------------------|
|--------------------------------------|-------------------------------------|


|------------------------------|-------------------7------9-7---------|
|-----10'~~10'~~10'~~10'~~-----|--10'-10-10'-10'-7---10-7-----10-7----|
|----------10---10---10--------|-------------9---------------------9'-|
|------------------------------|--------------------------------------|
|-9----------------------------|--------------------------------------|
|-7----------------------------|--------------------------------------|


|------------------|----------------------7-------7--------|
|------------7~~~--|-------------------7-----10~-----7-----|
|-7h9'--7~~~~~~~~--|-7/8--9'--7~~--9'----------------7--9'-|
|------------------|---------------------------------------|
|------------------|---------------------------------------|
|------------------|---------------------------------------|


|---7-7--------------------------------|
|-7---10/7---7h9p7---------------------|
|----------9-------9-7/8---------------|
|------------------------9-7-----------|
|----------------------------9-8-7-6~~-|
|--------------------------------------|


|-----------------------------------------------|
|------------------------------12~-14'--14'-14'-|
|---------------------11-12/13------------------|
|-------------9-11/13---------------------------|
|-------9~-11-----------------------------------|
|--9/11-----------------------------------------|


|------14-----14------------------------|---------------------------14-|
|-14'~----14'----14'-14-12h14p12h14-12~-|---15'15-15~-15'15-12~-14'----|
|---------------------------------------|------------------------------|
|---------------------------------------|------------------------------|
|---------------------------------------|------------------------------|
|---------------------------------------|------------------------------|

There's a...
|----------------7----7-9h10p7h10p7--9'-7------|---7---------------------|
|-14-12~12-----7---10-7-------------------7----|-7-----------------------|
|----------4/8------------------------------9'-|-----7-------------------|
|----------------------------------------------|-------9-----------------|
|----------------------------------------------|---------9---------------|
|----------------------------------------------|-------------------------|


..then Mr. Hendrix commences to sing whilst he's playing lead, which is
more than I can say for myself.

The lyrics are:

There's a red house over yonder.
That's where my baby stays.
Lord, there's a red house over yonder,
Lord, that's where my baby stays.
I ain't been home to see my baby
In ninety-nine and one half days.

Wait a minute, something's wrong here,
The key won't unlock this door.
Wait a minute, something's wrong,
Lord have mercy, this key won't unlock this door.
Something's gone wrong here--
I have a bad, bad feeling
That my baby don't live here no more.

That's alright--I still got my guitar.


Look out, now!
|---------------10-12'---10-------10'-|
|----12-12~~12~~------------12~~~-----|
|-11----------------------------------|
|-------------------------------------|
|-------------------------------------|
|-------------------------------------|


|----------14'---14-12-14--10-12-12'--10h12p10----10h12p10----|
|-------12-------------------------------------12----------12-|
|-11/13-------------------------------------------------------|
|-------------------------------------------------------------|
|-------------------------------------------------------------|
|-------------------------------------------------------------|


|-10h12p10----10-12'---10h12p10---------7--------------------|
|----------12-------------------12-10'--7-7-7h10p7-----------|
|--------------------------------------------------9-7---7/8-|
|------------------------------------------------------9-----|
|------------------------------------------------------------|
|------------------------------------------------------------|


|------7------9p7---10p7---10p7----...
|----7---10p7-----9------7------7--...
|-9'-------------------------------...
|----------------------------------...
|----------------------------------...
|----------------------------------...

At the ..., Hendrix repeats the 10p7, 7 lick a bunch of times, then
does a bit or two that I've got no idea how to play, then sings:

Well, I might as well go back over yonder
Way back among the hills.
Yeah, that's what I'm gonna do.
Lord, I might as well go back over yonder
Way back yonder acorss the hills.

Even if my baby don't l_v_ me no more,
I know her sister will.


Now play a little blues "see ya" riff, and then play something else.





Titties and
Beer forever,
Yours etc.,




SubGenius


Oceń to opracowanie
Kontrybucje:
Punko
Punko
anonim
  • Madzia
    bielas 14 lat temu

    fajnie sie to gra