0
0

Spanish Castle Magic Jimi Hendrix

Tekst piosenki i chwyty na gitarę

  • Chwyty na gitarę Punko
Date: Fri, 30 Jul 1993 13:33:48 -0700 (MST)
From: Paul Zimmerman
Subject: TAB: Spanish Castle Music - Hendrix


Spanish Castle Magic 1


Spanish Castle Magic
Jimi Hendrix

This is probably not quite right and I'm not too sure about the chord
names either. However, it approximates how I learned the basic parts
of this song years ago. Hope this helps.


Notation:

--7~----- Vibrato
--9/----- Slide up
--17\---- Slide down
--2h4---- Hammer-on
--6p4---- Pull-off
--6b7---- play fret 6, bend string to reach pitch at fret 7
--6b7r6-- play fret 6, bend string to reach pitch at fret 7, then
release to reach pitch at fret 6

Intro:

e ------|-----------------------------------|
B ------|-----------------------------------|
G ------|--9-9-----9-9-----9-9-----9-0------|
D --11--|--9-9-11--9-9-11--9-9-11--9---11\--|
A --11--|------11------11------11------11\--|
E ------|-----------------------------------|
* * * *

e --cis7---------------------0------|--cis7---------------------0------|
B -----------------------0------|-----------------------0------|
G -----------------------4------|--2--------------------4------|
D --2---------------------------|-------------2----------------|
A ----2----4~~-2--4---4--4------|---------4~~----4---4~--------|
E ------0-----------------------|----0-0-----------------------|
* * * * * * * *

e --cis7---------------------0------|--cis7---------------------0------|
B -----------------------0------|-----------------------0------|
G -----------------------4------|-----------------------4------|
D --2----------2----------------|--2---------------------------|
A ----2----4~~----4p2-4--4------|----2----4~~-2--4---4---------|
E ------0-----------------------|------0-----------------------|
* * * * * * * *

Verse:

e --B5/F#----------------------------|--B5/F --------------Asus4--------------|
B ------------------------------|------------------------------|
G --4-4-4--4--------------------|--3-3-3--3--------------------|
D --4-4-4--4--------------------|--3-3-3--3------7-7-7--7------|
A --2-2-2--2--------------------|--1-1-1--1------5-5-5--5------|
E --2-2-2--2--------------------|--1-1-1--1------5-5-5--5------|
* * * * * * * *

e --Gis5----------------------------|--Cis5/G#----------------------------|
B ------------------------------|------------------------------|
G ------------------------------|--6-6-6--6--------------------|
D --6-6-6--6--------------------|--6-6-6--6--------------------|
A --6-6-6--6--------------------|--4-4-4--4--------------------|
E --4-4-4--4--------------------|--4-4-4--4--------------------|
* * * * * * * *

e --B5/F#----------------------------|--B5/F --------------Asus4--------------|
B ------------------------------|------------------------------|
G --4-4-4--4--------------------|--3-3-3--3--------------------|
D --4-4-4--4--------------------|--3-3-3--3------7-7-7--7------|
A --2-2-2--2--------------------|--1-1-1--1------5-5-5--5------|
E --2-2-2--2--------------------|--1-1-1--1------5-5-5--5------|
* * * * * * * *

e --Gis5----------------------------|--Cis5/G#----------------------------|
B ------------------------------|------------------------------|
G ------------------------------|--6-6-6--6--------------------|
D ------------------------------|--6-6-6--6--------------------|
A --6-6-4-----------------------|--4-4-4--4--------------------|
E --4-4-5--6--------------------|--4-4-4--4----------------17--|
* * * * * * * *


Chorus:

e --A5--------------fis7-------0------|--A5--------------fis7-------0------|
B --5--------------------0------|-----------------------0------|
G --2----------2----------------|--2----------2----------------|
D --2------4~~----4---4---------|----2----4~~----4---4---------|
A --0---------------------------|------0-----------------------|
E ------------------------------|------------------------------|
* * * * * * * *

e --cis7----------------------------|--cis7----------------------------|
B ------------------------------|---------------------------4--|
G ------------------------------|---------------------------4--|
D --2----------2------------2---|--2----------2---------6------|
A ----2----4~~----4---4--2h4-4--|----2----4~~----4---4--4------|
E ------0-----------------------|------0-----------------------|
* * * * * * * *

e --Gis----------------------------|--E----------------------------------------|
B --6b7~~~r6-6-4--6--4------4---|--11b12r11b12r11b12r11b12r11-9b-----------|
G --6b7~~~r6-6-4--6--4------4---|--11b12r11b12r11b12r11b12r11-9b-----------|
D --6b7~~~r6------6--4---6------|---------------------------------11 9-----|
A ------------------------------|--------------------------------------10--|
E ------------------------------|------------------------------------------|
* * * * * * * *


e --cis7---------------------0------|--cis7---------------------0------|
B -----------------------0------|-----------------------0------|
G -----------------------4------|-----------------------4------|
D --2----------2----------------|--2----------2----------------|
A ----2----4~~----4---4---------|---------4~~----4---4---------|
E ------0-----------------------|----0-0-----------------------|
* * * * * * * *


Thanks to the original poster.

Peace,
Paul Z



Oceń to opracowanie
Kontrybucje:
Punko
Punko
anonim