0
0

Cancion Del Mariachi Los Lobos


Cancion del mariachi

intro:
e--------7--7--7--7--8--7--7----8--7--7---5-
B------8-8--8--8--8--8--8--8----8--8--8---7-
G----9-----------------------9----------9---
D--9----------------------------------------
A-------------------------------------------
E------------------------------------------

e----5--5--5--5--7--5--5--5--7--5--5---------
B----7--7--7--7--7--7--7--7--7--7--7---7---8-
G--7---------------------------------8---9---
B--------------------------------------------
D--------------------------------------------
A-------------------------------------------
E-------------------------------------------

ZWR.soy un hombre muy horando,que me gusta lo mejor e B
a mujeres no me faltan,ni al dinero,ni el amor e


Jineteando en mi caballopor la sierra yo me voy e B
Las estrellas y la lunaellas me dicen donde voy e

REF.ay,ay,ay,ay a e
ay,ay mi amor B e
ay mi morena a e
de mi corazon B e

Me gusta tocar la guitarrame gusta cantar el sol e B
Mariachi me acompanacuando canto mi canción e

Me gusta tomar mis copasaguardiente es lo mejor e B
También el tequila blancocon su sal le da sabor e

Ref. ay ay ay ay ....
zwr.
Me gusta tocar guitarrame gusta cantar el sol e B
mariachi me acompanacuando canto mi canción e

Me gusta tomar mis copasaguardiente es lo mejor e B
También el tequila blancocon su sal le da sabor e

REF. ay ay ay ay...


Oceń to opracowanie
Ocena czytelników: Niczego sobie 18 głosów
Kontrybucje:
speedy1354
speedy1354
anonim