0
0

Ach proszę pani... Maciej Maleńczuk

Tekst piosenki i chwyty na gitarę

  • Chwyty na gitarę -=art=-
    7 ulubionych
Autor tabulatury: Grzegorz Grotnik [newmodel@box43.pl]


 akordy w zwrotce - bicie:

   e          b 
 e|-----7----|-----2---|
 b|-----8----|-----3---|
g#|-----8----|-----3---|
 e|-7-7-7-7--|-2-2-2-2-|
 b|----------|---------|
 e|----------|---------|


   break1:

 e|------5------------3------------------|
 b|------5------------3------------------|
g#|------5------------3-------5---3---2--|
 e|-5-5----------3-3----------5---3---2--|
 b|-5-5-----5----3-3----3-----5-x-3-x-2--|
 e|-5-5-----5----3-3----3----------------|


   break2:

 e|------5------------3-----6---3---2---0----7--|
 b|------5------------3----(0)-(0)-(0)--0----7--|
g#|------5------------3----------------------8--|
 e|-5-5----------3-3----------------------------|
 b|-5-5-----5----3-3----------------------------|
 e|-5-5-----5----3-3----------------------------|


 ostatni raz w piosence ("ride vau, ride vau..."):

 e|------5------------3-----6-6-6-6-6----7-7-7-7-7-7-7----0----------|
 b|------5------------3-----6-6-6-6-6----7-7-7-7-7-7-7----0----------|
g#|------5------------3-----6-6-6-6-6----7-7-7-7-7-7-7----0----------|
 e|-5-5----------3-3--------6-6-6-6-6----7-7-7-7-7-7-7----0----------|
 b|-5-5-----5----3-3--------6-6-6-6-6----7-7-7-7-7-7-7----0----------|
 e|-5-5-----5----3-3--------6-6-6-6-6----7-7-7-7-7-7-7----0----------|


Em, Bm, Bm, Em, Em, Bm, Bm, e 


e               b 
Ach proszę pani proszę pani

                                    e 
Niech mnie pani więcej już nie rani

                            b 
Już dosyć nie chcę nie chcę za nic

                                    e 
Niech nie rani mnie pani - nie pani


break1:

Niech skończy się już to ranienie
Bo ja nie jestem do ranienia

break2:

Co kiedyś piękne teraz zwiędłe
Cynizmem przeżarte - schemat


reszta tekstu:


"Ulica śpiewa hymn o dolarze
A wolni grażdanie szczerzą szczerby
I Polska, Polska uber alles
Faszyści grupami jak psy
Na ulicach miast
Próbują noży na mej twarzy
Polska, Polska ponad wszystko
W kleszczach milczenia pociągiem jadę...


Pani bardziej samolotami
Których się pani trochę boi
Tak ciągle się oddalamy zbliżamy
Taki życiowy es flores
Na pani miejscu już dawno bym go rzucił
Dałbym rozsądkowi głos
I miłą melodię zanucił


Zima - która to już zima
Doprawdy zbyt dobra mam pamięć
Wina - która to już wina
Dlaczego tak dobrze pamięta się
To co złe
A przecież tak dobrze cię przytulić
I miłą melodię zanucić


O no setine seti maria
Dana elito ne pa er
O no setine seti maria
Irija sino deside
Szante szante dana elito
Irija dante maj
Simon simon idarineo
Ride vau ride vau
Majer repias
Tiarra botisz ri sivanon
Se mori del le par
Iridamon iridamon
Szante szante dana elito
Irija date maj
Simon simo da fe
Ride vau ride vau"







Oceń to opracowanie
Kontrybucje:
-=art=-
-=art=-

Dodaj własne wykonanie

Umiesz zagrać tą piosenkę? Nagraj swoje wykonanie i pokaż innym jak grasz! Konkurs Morskie Opowieści
anonim
  • Anonimowy użytkownik
    Biały 13 lat temu

    Co za kolo to wstawił? Masakra!