0
0

Bang Bang (My Baby Shot Me Down) Nico Vega

[Intro]

e|--0--------0----------1-------1--0--------0--------1--0--------------|
B|--------1----3--1----------3--------3-----------0--------3--1--0--1--|
G|-----2-------------------2-------------------1--------------------2--|
D|--2-------------------0-------------------------------------------2--|
A|------------------------------------------2--------------------------|
E|---------------------------------------------------------------------|


[Zwrotka]

a I was five and he was six
a We rode on horses made of sticks
d He wore black and I wore white
EHe would always win the fight


[Refren]

a Bang Bang, He shot me down
a Bang Bang, I hit the ground
a Bang d Bang, That awful sound
d Bang EBang, My baby shot me down


[Instrumental]

e|--0--------0----------1-------1--0--------0--------1--0--------------|
B|--------1----3--1----------3--------3-----------0--------3--1--0--1--|
G|-----2-------------------2-------------------1--------------------2--|
D|--2-------------------0-------------------------------------------2--|
A|------------------------------------------2--------------------------|
E|---------------------------------------------------------------------|


[Zwrotka]

a Seasons came and change their time
a When I grew up I called him mine
d He would always laught and say
E"Remember when we used to play"


[Refren]

a Bang Bang, I shot you down
a Bang Bang, You hit the ground
d Bang Bang, That awful sound
EBang Bang, I used to shoot you down


[Instrumental]

e|--0--------0----------1-------1--0--------0--------1--0--------------|
B|--------1----3--1----------3--------3-----------0--------3--1--0--1--|
G|-----2-------------------2-------------------1--------------------2--|
D|--2-------------------0-------------------------------------------2--|
A|------------------------------------------2--------------------------|
E|---------------------------------------------------------------------|


[Bridge]

a Music played and people sang
G7Just for me the church bells rang
F G7 F G7 a F G7
a


[Zwrotka]

a Now he's gone, I don't know why
a Until this day sometimes I cry
d He didn't even say goodbye
EHe didn't take the time to lie


[Refren]

a Bang Bang, He shot me down
a Bang Bang, I hit the ground
a Bang d Bang, That awful sound
d Bang EBang, My baby shot me down


[Ending]

e|--0--------0----------1-------1--0--------0--------1--0--------------|
B|--------1----3--1----------3--------3-----------0--------3--1--0--1--|
G|-----2-------------------2-------------------1--------------------2--|
D|--2-------------------0-------------------------------------------2--|
A|------------------------------------------2--------------------------|
E|---------------------------------------------------------------------|


Oceń to opracowanie
Ocena czytelników: Fatalny 1 głos
Kontrybucje:
3EYE
3EYE
anonim