Domination Pantera

Tekst piosenki

  • Tekst piosenki Punko
    1 ulubiony
DOMINATION - Pantera

(from the album 'COWBOYS FROM HELL')

Special note - I have NOT put in the Palm Muting used on this track. Also in
riff 9(b), the symbol '/' means slide the chord up. All the riffs are in [4/4]
except where the time signature is shown in brackets after the number, pay
special attention to number 2(c), where the signature changes within the riff.
All of the 'COUNTS' are only rough!!!!!!

Special note no.2 - If it is a bit difficult to get the chords in the riffs no.
1(a) - 1(c), try playing only the root note of the chord (the bottom note).


RIFF 1(a):
E5D5E5 E5D5E5 E5D5E5 G5A5G5
e -----------------------------------------------------------------------------
b -----------------------------------------------------------------------------
gd [-----------------------------------------------------------------------------]----------------9-7-9-----------9-7-9-----------9-7-9------------------------
a ----------------7-5-7-----------7-5-7-----------7-5-7-----------5-7-5--------
E --------0---------------0---------------0---------------0-------3-5-3--------

COUNT: 1 & 2 & 3 & 4 & 1 & 2 & 3 & 4 & 1 & 2 & 3 & 4 & 1 & 2 & 3 & 4 &

RIFF 1(b):
E5D5E5 E5D5E5 E5D5E5 G5A5G5
e -----------------------------------------------------------------------------
b -----------------------------------------------------------------------------
gd [-----------------------------------------------------------------------------]----------------9-7-9-----------9-7-9-----------9-7-9------------------------
a ----------------7-5-7-----------7-5-7-----------7-5-7-----------5-7-5--------
E --------0-0-0-----------0-0-0-----------0-0-0-----------0-0-0---3-5-3--------

COUNT: 1 & 2 & 3 & 4 & 1 & 2 & 3 & 4 & 1 & 2 & 3 & 4 & 1 & 2 & 3 & 4 &


RIFF 1(c):
E5D5E5 E5D5E5 E5D5E5 G5A5G5
e -----------------------------------------------------------------------------
b -----------------------------------------------------------------------------
gd [-----------------------------------------------------------------------------]----------------9-7-9-----------9-7-9-----------9-7-9------------------------
a ----------------7-5-7-----------7-5-7-----------7-5-7-----------5-7-5--------
E --------0---0-----------0---0-----------0---0-----------0---0---3-5-3--------

COUNT: 1 & 2 & 3 & 4 & 1 & 2 & 3 & 4 & 1 & 2 & 3 & 4 & 1 & 2 & 3 & 4 &


RIFF 2(a): [6/4] RIFF 2(b): [3/4]
B5 C5 Cis5 D5 B5C5Db5D5Eb5E5
e -----------------------------------------------------------------------------
b -----------------------------------------------------------------------------
gd [-----------------------------------------------------------------------------]-----------4-4-4-5-5-5-6-6-6-7-------------------4-5-6-7-8-9-----------------
a -----------2-2-2-3-3-3-4-4-4-5-------------------2-3-4-5-6-7-----------------
E -----------------------------------------------------------------------------

COUNT: 1 & 2 & 3 & 4 & 5 & 6 & 1 & 2 & 3 &


RIFF 2(c): [6/4] [4/4]
e -----------B5------C5------Cis5------D5------------|------A5-----------------------------
b -----------------------------------------|-----------------------------------
g -----------------------------------------|-----------------------------------
d -----------4-4-4-5-5-5-6-6-6-7-7-7-------|------7----------------------------
a -----------2-2-2-3-3-3-4-4-4-5-5-5-------|------7----------------------------
E -----------------------------------------|------5----------------------------

COUNT: 1 & 2 & 3 & 4 & 5 & 6 & 1 & 2 & 3 & 4 &


RIFF 3(a): RIFF 3(b):
e --------------E5----------------E5--------------------|-----------E5------E5----E5-----
b --------------------------------------------------|--------------------------
g --------------------------------------------------|--------------------------
d --------------------------------------------------|--------------------------
a --------------2---------------2-------------------|-----------2-----2---2----
E ----------00000-----------00000-------------------|-------00000-00000-000----

COUNT : 1 & 2 & 3 & 4 & 1 & 2 & 3 & 4 & 1 & 2 & 3 & 4 &

RIFF 4:
B5 Bb5A5Ab5G5Gb5
e -----------------------------------------------------------------------------
b -----------------------------------------------------------------------------
g -----------------------------------------------------------------------------
da [-----------------------------------------------------------------------------]--------9---8---7-6-5-4------------------------------------------------------
E --------7---6---5-4-3-2------------------------------------------------------

COUNT: 1 & 2 & 3 & 4 &

RIFF 5(a):
C5 G5 A5 E5 D5
e -----------------------------------------------------------------------------
b -----------------------------------------------------------------------------
gd [-----------------------------------------------------------------------------]--------5---------------------------------------9---------------7------------
a --------3---------------5-------7---------------7---------------5------------
E ------------------------3-------5-------00000--0--------00000--0-------------

COUNT: 1 & 2 & 3 & 4 & 1 & 2 & 3 & 4 & 1 & 2 & 3 & 4 & 1 & 2 & 3 & 4 &

RIFF 5(b):
e -------------E5----------|-----C5----------------G5--------F5----------------E5--------
b -----------------------|-----------------------------------------------------
g -----------------------|-----------------------------------------------------
d -------------9---------|-----5---------------------------------------9-------
a -------------7---------|-----3---------------5-------3---------------7-------
E -----00000--0----------|---------------------3-------1-------00000--0--------

COUNT: 1 & 2 & 3 & 4 & 1 & 2 & 3 & 4 & 1 & 2 & 3 & 4 & 1 & 2 & 3 & 4 &

D5 B5
e -----------------------------------------------------------------------------
b -----------------------------------------------------------------------------
gd-[-----------------------------------------------------------------------------]----------------7---------------4--------------------------------------------
a ----------------5---------------2--------------------------------------------
E --------00000--0--------00000--0---------------------------------------------

COUNT: 1 & 2 & 3 & 4 & 1 & 2 & 3 & 4 &

RIFF 6:
E5
e -----------------------------------------------------------------------------
b -----------------------------------------------------------------------------
g -----------------------------------------------------------------------------
da [-----------------------------------------------------------------------------]-----------2-----------------------------------------------------------------
E -------0000000---------------------------------------------------------------

COUNT: 1 & 2 & 3 & 4 &

RIFF 7:

e -----------------------------------------------------------------------------
b -----------------------------------------------------------------------------
gd [-----------------------------------------------------------------------------]-------17--------------15--------------14------------------------------------
aE [-----------------------------------------------------------------------------]-------15--------------13--------------12------------------------------------

COUNT: 1 & 2 & 3 & 4 & 1 & 2 & 3 & 4 & 1 & 2 & 3 & 4 & 1 & 2 & 3 & 4 &

e -----------------------------------------------------------------------------
b -----------------------------------------------------------------------------
gd [-----------------------------------------------------------------------------]-------17--------------15--------------12------------------------------------
aE [-----------------------------------------------------------------------------]-------15--------------13--------------10------------------------------------

COUNT: 1 & 2 & 3 & 4 & 1 & 2 & 3 & 4 & 1 & 2 & 3 & 4 & 1 & 2 & 3 & 4 &

RIFF 8:
E5
e -----------------------------------------------------------------------------
b -----------------------------------------------------------------------------
g -----------------------------------------------------------------------------
da [-----------------------------------------------------------------------------]-------2-2-2---2-2-2---2-2-2---2-2-2-------2-2-2--2-2-2--2-2-2---------------
E -------0-0-0---0-0-0---0-0-0---0-0-0-------0-0-0--0-0-0--0-0-0---------------

COUNT: 1 & 2 & 3 & 4 & 1 & 2 & 3 & 4 &

RIFF 9(a)
F5 E5 F5 E5 F5 E5 F5 E5
e -----------------------------------------------------------------------------
b -----------------------------------------------------------------------------
g -----------------------------------------------------------------------------
da [-----------------------------------------------------------------------------]-------3-3-2-2-3-3-2-2-3-3-2-2-3-3-2-2-----2-2-2---2-2-2---2-2-2-------------
E -------1-1-0-0-1-1-0-0-1-1-0-0-1-1-0-0-----0-0-0---0-0-0---0-0-0-------------

COUNT: 1 & 2 & 3 & 4 & 1 & 2 & 3 & 4 &

RIFF 9(b)
E5 F5 E5 F5 E5 F5 E5 F5/G5 E5
e -----------------------------------------------------------------------------
b -----------------------------------------------------------------------------
g -----------------------------------------------------------------------------
da [-----------------------------------------------------------------------------]-------2-2-3-3-2-2-3-3-2-2-3-3-2-2-3/5-----2-2-2---2-2-2---2-2-2-------------
E -------0-0-1-1-0-0-1-1-0-0-1-1-0-0-1/3-----0-0-0---0-0-0---0-0-0-------------

COUNT: 1 & 2 & 3 & 4 & 1 & 2 & 3 & 4 &


Arrangement:

INTRO:
riff 1(a) *2
riff 1(b) *2
riff 1(c) *2
riff 1(b) *2
riff 2(a) *1
VERSE 1:
riff 3(a) *1.5
riff 4 *1
riff 3(a) *3.5
Agony is the price that you pay in the end
Domination consumes you then calls you a friend.
riff 4 * 1
It's a twisted fall.
riff 3(a) *1.5
Binds are like steel and manipulates the will to be.
riff 3(b) *1
An eternity.
riff 3(a) *1.5
How soon we forget when there's nothing else left to destroy
It's a useless ploy.
riff 4 *1
PRE - CHORUS:
riff 5(a) *1
Your eyes will see the dawn of the day
And the writing on the wall.
riff 4 *1
riff 5(b) *1
Those words that stare into your soul
and to yourself you will befall.
riff 2(b) *1
CHORUS:
riff 1(a) *2
It's domination. Pushed into
riff 1(c) *2
Living hell. Domination.
riff 2 (c) *1
REPEAT FROM VERSE 1
Lyrics for verse 2:
A now blacked heart is reaching out in divinity.
Body suspended by chains over razors and nails, it's a penalty.
Each razor a vice and each nail marks demise of your life.
Grim construction grows.
Life plays its tricks seals you in brick by brick till your end
forcing you to bend.

Bend up A5 chord at end of riff 2(c).

riff 6 *4
riff 7 *1 (whilst bass plays riff 6)

SOLO starts in 12th posn., whilst bass plays variations on verse & pre-chorus
riffs, followed by rhythm going from E - F - G - A.

riff 8 *4
SOLO (tapping) whilst bass plays riff 8 *4
riff 9(a) *1
riff 9(b) *1
riff 9(a) *1
riff 9(b) *1
END.

Matt Garrad 1995



* Is there no standard anymore? * [ 'Walk' ]

Oceń to opracowanie
Kontrybucje:
Punko
Punko
anonim