Heresy Pantera

Tekst piosenki

  • Tekst piosenki Punko
#----------------------------------PLEASE NOTE---------------------------------#
#This file is the author's own work and represents their interpretation of the #
#song. You may only use this file for private study, scholarship, or research. #
#------------------------------------------------------------------------------##
Date: Sun, 3 Dec 1995 13:37:19 -0500
From: Don Pezet
Subject: BTAB: Heresy by Pantera


Bass Tab by: Don Pezet (dpezet@ao.net)
Group: Pantera
Song: Heresy
Album: Cowboys From Hell
Written and arranged by: Pantera





HERESY - PANTERA BASS
-----------------------


---|| 7 |---------|---|---|---|---------|-----------------------|
---|| |--| |---------|---|---|---|---------|-----------------------|
---|| |--| |---------|---|---|---|---------|-----------------------|
---|| |-------0-|---|---|---|-------0-|---0-2-2-0-0-0-0-2-2-0-|
E H Q E e W W W H Q E e E e s s e s s e s s e

|-----------------------|-----------------------|---------------||
|-----------------------|-----------------------|---------------||
|-----------------------|-----------------------|---------------||
|-0-0-0-4-4-0-0-0-0-3-0-|---0-2-2-0-0-0-0-2-2-0-|-0-0-------3-0-||
s s e s s e s s e e e E e s s e s s e s s e s s E Q Q e e

||-------------------------|-----------------------|-----------------------|
||-o-----------------------|-----------------------|-----------------------|
||-o-----------------------|-----------------------|-----------------------|
||-----0-2-2-0-0-0-0-2-2-0-|-0-0-0-4-4-0-0-0-0-3-0-|---0-2-2-0-0-0-0-2-2-0-|
E e s s e s s e s s e s s e s s e s s e e e E e s s e s s e s s e

4x

|-------------------------------||
|-----------------------------o-||
|-----------------------------o-||
|-0-0-0-0-4-0-0-0-0-0-0-0-3-0---||
s s s s s s s s s s s s e e

|1,2,3. |4.
||-------------------|-------------------||---------------||
||-o-----------------|-----------------o-||---------------||
||-o-----------------|-----------------o-||---------4---4-||
||-----0-7-0-6-0-4-6-|-7-0-6-0-3-4-5-0---||-7-0-6-0---4---||
E e e e e e e e e e e e e e e e e e e e q q q
3

||-------------------|---------------|-----------------|
||-o-----------------|---------------|-----------------|
||-o-----------------|---------------|-----------------|
||---0-0-0-0-0-0-0-0-|-0-0-0-0-0-3-4-|-0-0-0-0-0-0-0-0-|
e e e e e e e e e e e e e q e e e e e e e e e

|---------------|-----------------|---------------|-----------------|
|---------------|-----------------|---------------|-----------------|
|---------------|-----------------|---------------|-----------------|
|-0-0-0-0-0-1-2-|-0-0-0-0-0-0-0-0-|-0-0-0-0-0-3-4-|-0-0-0-0-0-0-0-0-|
e e e e e q e e e e e e e e e e e e e e q e e e e e e e e e

|---------------|-----------------|---------------|-----------------|
|---------------|-----------------|---------------|-----------------|
|---------6---6-|-----3-1-----3-1-|-----3-1-4---4-|-----3-1-----3-1-|
|-0-0-0-0---6---|-0-0-----0-0-----|-0-0-------4---|-0-0-----0-0-----|
e e e e q q q e e e e e e e e e e e e q q q e e e e e e e e
3 } { 3

|---------------|-----------------|---------------|-----------------|
|---------------|-----------------|---------------|-----------------|
|-----3-1-6---6-|-----3-1-----3-1-|-----3-1-4---4-|-----3-1-----3-1-|
|-0-0-------6---|-0-0-----0-0-----|-0-0-------4---|-0-0-----0-0-----|
e e e e q q q e e e e e e e e e e e e q q q e e e e e e e e
3 } { 3

|---------------|-----------------|---------------|-----------------|
|---------------|-----------------|---------------|-----------------|
|-----3-1-------|-----------------|---------------|-----------------|
|-0-0-----4-5-6-|-0-0-0-0-0-0-0-0-|-0-0-0-0-0-3-4-|-0-0-0-0-0-0-0-0-|
e e e e q q q e e e e e e e e e e e e e q e e e e e e e e e
3

|---------------|-----------------|---------------|---|---------------|
|---------------|-----------------|---------------|---|---------4-----|
|---------------|-----------------|---------------|-R-|-R-3---3---0-3-|
|-0-0-0-0-0-1-2-|-0-0-0-0-0-0-0-0-|-0-0-0-0-0-3-4-|---|-----3---------|
e e e e e q e e e e e e e e e e e e e e q e w e e e e e q e

|-----------------|-----------------|-----------------|-----------------|
|-----------------|-----------------|-----------------|-----------------|
|-4-4-4-0-1-1-1---|-------1-2-2-2-3-|-4-4-4-0-1-1-----|---------------3-|
|---------------2-|-3-3-3-----------|-------------4\2-|-0-0-0-0-0-0-0---|
e e e e e e e e e e e e e e e e e e e e e e e e e e e e e e e e

|-----------------|-----------------|-----------------|-------------|
|-----------------|-----------------|-----------------|- riff 1 2x -|
|-4-4-4-0-1-1-1---|-------1-2-2-2-3-|-4-4-4-0-1-1-----|-------------|
|---------------2-|-3-3-3-----------|-------------2-0-|-------------|
e e e e e e e e e e e e e e e e e e e e e e e e

|1. (2/4) (4/4)
|-----------------|--------------|-----------------|------------|--------||
|-----------------|--------------|-----------------|------------|------o-||
|-----------------|--------------|-----------------|------------|-R----o-||
|-R-0-7-0-6-0-4-6-|-7-0-6-0-4-6--|-0-0-7-0-6-0-4-6-|-7-6--2-3-R-|--------||
e e e e e e e e e e e e e q. e e e e e e e e e q. e e q h

|2. (2/4) (4/4)
|---|------||-----------------|---|---------------|---|---------------|---|
|---|------||-o---------------|---|---------------|---|---------------|---|
|-R-|--R---||-o---------------|---|---------------|-3-|---------------|---|
|---|------||---0-0-0-4-0-0-2-|-0-|-0-0-0-4-0-0-2-|---|-0-0-0-4-0-0-2-|-0-|
w h e e e e e e q w e e e e e e q w e e e e e e q w

4x

|---------------|-------------|||-------------------|-----------------|
|---------------|-----------o-|||-o-----------------|-----------------|
|-0-0-0-3-0-0-2-|-1-0-------o-|||-o-----------------|-----------------|
|---------------|-----3-3-1---|||---0-0-0-3-0-0-0-0-|-0-3-0-0-0-0-0-0-|
e e e e e e q q q e e q e e e e e e e e e e e e e e e e

|-----------------|-----------------|-----------------|-----------------|
|-----------------|-----------------|-----------------|-----------------|
|-----------------|-----------------|-----------------|-----------------|
|-0-0-0-3-0-0-0-0-|-0-3-0-0-0-0-0-0-|-0-0-0-3-0-0-0-0-|-0-3-0-0-0-0-0-0-|
e e e e e e e e e e e e e e e e e e e e e e e e e e e e e e e e

|-----------------|-------------|||-------------------|-----------------|
|-----------------|-----------o-|||-o-----------------|-----------------|
|-0-0-0-0-0-0-0-0-|-3-2-0-----o-|||-o-----------------|-----------------|
|-----------------|-------3-1---|||---2-0-0-3-0-0-2-0-|-0-3-0-0-2-2-2-2-|
e e e e e e e e q q e e q e e e e e e e e e e e e e e e e

|-----------------|-----------------|-----------------|-----------------|
|-----------------|-----------------|-----------------|-----------------|
|-----------------|-----------------|-----------------|-----------------|
|-2-0-0-3-0-0-2-0-|-0-3-0-0-2-2-2-2-|-2-0-0-3-0-0-2-0-|-0-3-0-0-2-2-2-2-|
e e e e e e e e e e e e e e e e e e e e e e e e e e e e e e e e

|1,2,3. |4.
|---------------|---------------|||-----------------|-----------------||
|---------------|-------------o-|||-o---------------|---------------o-||
|-3-2-0-----3-2-|-0-----3-2---o-|||-o-3-2-0-----3-2-|-0-----3-2-0---o-||
|-------2-0-----|---2-0-----0---|||---------2-0-----|---2-0-------2---||
e e e q e e e e q e e e q e e e q e e e e q e e e e e

|---|-------------|-----------------------|-------------------------|
|---|- riff 1 2x -|-----------------------|-------------------------|
|---|-------------|-----------------------|-------------------------|
|-3-|-------------|-R-0-2-2-0-0-0-0-2-2-0-|-0-0-0-2-2-0-0-0-0-2-2-0-|
w e e s s e s s e s s e s s e s s e s s e s s e

|---------------------------------|---------------------------------|
|---------------------------------|---------------------------------|
|---------------------------------|---------------------------------|
|-3-4-4-4-4-4-4-4-4-4-4-4-4-4-4-4-|-4-4-4-4-4-4-4-4-4-5-5-5-5-5-5-5-|
s s s s s s s s s s s s s s s s s s s s s s s s s s s s s s s s

|-----------------------|-----------------------|
|-----------------------|-----------------------|
|-----------------------|-----------------------|
|-0-0-2-2-0-0-0-0-2-2-0-|-0-0-2-2-0-0-0-0-2-2-0-|
e e s s e s s e s s e e e s s e s s e s s e

|---------------------------------|---------------------------------|
|---------------------------------|---------------------------------|
|---------------------------------|---------------------------------|
|-3-4-4-4-4-4-4-4-4-4-4-4-4-4-4-4-|-4-4-4-4-4-4-4-4-4-5-5-5-5-5-5-5-|
s s s s s s s s s s s s s s s s s s s s s s s s s s s s s s s s

|-------------|---||
|-------------|---||
|-3-5-4-6---7-|---||
|---------6---|-0-||
q q q q q q e
3 } { 3




--=====================_818026762==_
Content-Type: text/plain; charset="us-ascii"

--
dpezet@accessorl.net

--=====================_818026762==_--

Oceń to opracowanie
Kontrybucje:
Punko
Punko
anonim