Sheddding Skin Pantera

Tekst piosenki

  • Tekst piosenki Punko
Date: Sat, 24 Jun 1995 14:20:13 -0500 (CDT)
From: Matt J Seifert
Subject: Tab: Pantera Shedding Skin (fwd)

FROM THE ALBUM FAR BEYOND DRIVEN- "SHEDDING SKIN"
Words & music by Pantera
Tab by Matt Seifert

NH= natural harmonic
. = palm mute


-a few licks from shedding skin

intro
|----------------------|------------------------|
|----------------------|------------------------|
.----------------------.------------------------.
.------------22--------.------------------------.
|-------2-3-----3--2---|-22----22----11----00---|
|-00-3---------------3-|----3-----3-----2-----1-|
PM.. . . . .. . . . .. . .. . .. . .. .
(3 times)

clean part
|---------0---------------0---------------0-----------------|
|-----------3---------4-----4---------------2---------------|
.-------0-----0---------0-----0---------0-----0-------7(NH)-.
.-----4---------4---5-----------5-----3---------3(3)--7(NH)-.
|---2-------------3-----------------1-----------------7(NH)-|
|-0-------------------------------0-------------------0-----|
(let ring throughout)

if sombody knows the rest, feel free to add it

Oceń to opracowanie
Kontrybucje:
Punko
Punko
anonim