Walk Pantera

Tekst piosenki

  • Tekst piosenki Punko
Walk by Pantera

Drop D tuning

---------------------------------
---------------------------------
---------------------------------
----------------------------8-----
----------------------------8-----
--0--0--1b---0-------0--8-------

---------------------------------
---------------------------------
---------------------------------
----------------------------6-----
----------------------------6-----
--0--0--1b---0-------0--6-------

---------------------------------
---------------------------------
---------------------------------
----------------------------6-----
----------------------------4-----
--0--0--1b---0-------0---------

---------------------------------
---------------------------------
---------------------------------
---------------------------------
---------------------------------
------------1------3------4------3------1-
-0--0--0--1--0--3--0---4--0--3--0--1-


prechorus
----------------------------------
----------------------------------
----------------------------------
-5--6---7----------------------------
-3--6---7----------------------------
-----6---7--------------------------

A lesson learned in life....

----------------------------------
----------------------------------
----------------------------------
-5----6----3----2---1--------------
-3----6----3----2---1--------------
-------6----3----2---1-------------

chorus (Respect....

---------------------------------
---------------------------------
---------------------------------
----------------------------8-----
----------------------------8-----
--0--0--1b---0-------0--8-------

---------------------------------
---------------------------------
---------------------------------
----------------------------6-----
----------------------------6-----
--0--0--1b---0-------0--6-------

---------------------------------
---------------------------------
---------------------------------
----------------------------6-----
----------------------------4-----
--0--0--1b---0-------0---------

---------------------------------
---------------------------------
---------------------------------
---------------------------------
---------------------------------
------------1------3------4------3------1-
-0--0--0--1--0--3--0---4--0--3--0--1-

Are you talking to me???

---------------------------------
---------------------------------
---------------------------------
---------------------------------
---------------------------------
------------1------3------4------3------1-
-0--0--0--1--0--3--0---4--0--3--0--1-

outro

---------------------------------
---------------------------------
---------------------------------
---------2-/-1----0---------2-/-1--0---
---------2-/-1----0---------2-/-1--0---
-0-0-0-2-/-1----0-0-0-0-2-/-1--0---
WALK - PANTERA BASS
---------------------

Swing feel ( ie: e e = q e )
3

Drop D Tuning (D,A,D,G)

|-----|-----|-------------------------|---------------------|
|-----|-----|-------------------------|---------------------|
|-----|-----|-------------------------|------------------x\-|
|-----|-----|-0-0-0-0-0-0-0-0-0-0-0-0-|-0-0-0-0-0-0---x\----|
W W e e e e e e e e e e e e e e e e e e e q q
3 } { 3 } { 3 } { 3 } { 3 } { 3 } {3

|-----------------------|---------------------|-----|-------------------||
|-----------------------|---------------------|--%--|-------------------||
|-----------------------|---------------------|-----|----------------x\-||
|-0---0-2-1-0---0-2-1-0-|---0-2-1-0---0-2-1-0-|-----|---0-2-1-0---x\----||
e E e e e e E e e e e E e e e e E e e e e E e e e e E q q
3 } { 3 } { 3 } { 3 } { 3 } { 3 } {3

||--------------------|-------------------|-------------------|
||o-------------------|-------------------|-------------------|
||o-----------------1-|-------------------|-----------------4-|
||--0---0-2-1-0---0---|-0---0-2-1-0---0-6-|-0---0-2-1-0---0---|
e E e e e e E e q e E e e e e E e q e E e e e e E e q
3 } { 3 } { 3 } { 3 } { 3 } { 3

2x

|--------------------------||-------------------------||
|-------------------------o||-------------------------||
|-------------------------o||-------------------------||
|-0-0-0-1-0-3-0-4-0-3-0-1--||-0-0-0-1-0-3-0-4-0-3-0-1-||
e e3 e} e{ e3 e} e{ e3 e} e{ e3 e} e{ e3 e} e{ e3 e} e{ e3 e} e{ e3 e

verse 1 2x
||------------------------|---------------------|-----|------------------||
||o-----------------------|---------------------|-----|-----------------o||
||o-----------------------|---------------------|--%--|-------------4-4-o||
||--0---0-2-1-0---0-2-1-0-|---0-2-1-0---0-2-1-0-|-----|---0-2-1-0--------||
e E e e e e E e e e e E e e e e E e e e e E e e e e E e q
3 } { 3 } { 3 } { 3 } { 3 } { 3

pre-chorus 2x
||-----|--------|-----------------------|----------------------||
||o----|--------|-----------------------|---------------------o||
||o-3--|--------|-----------------------|---------------------o||
||-----|--6--7--|-0---0-2-1-0---0-2-1-0-|---0-2-1-0---0-2-1-0--||
w h h e E e e e e E e e e e E e e e e E e e e e
3 } { 3 } { 3 } { 3 } { 3

|---------|---------|---------|----------------||
|---------|---------|---------|----------------||
|--3------|---------|---------|----------------||
|---------|--6------|--3------|--2------1------||
w w w h h

chorus
||--------------------|-------------------|-------------------|
||o-------------------|-------------------|-------------------|
||o-----------------1-|-------------------|-----------------4-|
||--0---0-2-1-0---0---|-0---0-2-1-0---0-6-|-0---0-2-1-0---0---|
e E e e e e E e q e E e e e e E e q e E e e e e E e q
3 } { 3 } { 3 } { 3 } { 3 } { 3

2x

|--------------------------||-------------------------||
|-------------------------o||-------------------------||
|-------------------------o||-------------------------||
|-0-0-0-1-0-3-0-4-0-3-0-1--||-0-0-0-1-0-3-0-4-0-3-0-1-||
e e3 e} e{ e3 e} e{ e3 e} e{ e3 e} e{ e3 e} e{ e3 e} e{ e3 e} e{ e3 e

|-----------------------|---------------------|-----|-------------------||
|-----------------------|---------------------|--%--|-------------------||
|-----------------------|---------------------|-----|----------------x\-||
|-0---0-2-1-0---0-2-1-0-|---0-2-1-0---0-2-1-0-|-----|---0-2-1-0---x\----||
e E e e e e E e e e e E e e e e E e e e e E e e e e E q q
3 } { 3 } { 3 } { 3 } { 3 } { 3 } {3

verse 2 2x
||------------------------|---------------------|-----|------------------||
||o-----------------------|---------------------|-----|-----------------o||
||o-----------------------|---------------------|--%--|-------------4-4-o||
||--0---0-2-1-0---0-2-1-0-|---0-2-1-0---0-2-1-0-|-----|---0-2-1-0--------||
e E e e e e E e e e e E e e e e E e e e e E e e e e E e q
3 } { 3 } { 3 } { 3 } { 3 } { 3

pre-chorus 2x
||-----|--------|-----------------------|----------------------||
||o----|--------|-----------------------|---------------------o||
||o-3--|--------|-----------------------|---------------------o||
||-----|--6--7--|-0---0-2-1-0---0-2-1-0-|---0-2-1-0---0-2-1-0--||
w h h e E e e e e E e e e e E e e e e E e e e e
3 } { 3 } { 3 } { 3 } { 3

|---------|---------|---------|----------------||
|---------|---------|---------|----------------||
|--3------|---------|---------|----------------||
|---------|--6------|--3------|--2------1------||
w w w h h

chorus
||--------------------|-------------------|-------------------|
||o-------------------|-------------------|-------------------|
||o-----------------1-|-------------------|-----------------4-|
||--0---0-2-1-0---0---|-0---0-2-1-0---0-6-|-0---0-2-1-0---0---|
e E e e e e E e q e E e e e e E e q e E e e e e E e q
3 } { 3 } { 3 } { 3 } { 3 } { 3

4x

|--------------------------||-------------------------|-----|-----||
|-------------------------o||-------------------------|-----|-----||
|-------------------------o||-------------------------|--%--|--%--||
|-0-0-0-1-0-3-0-4-0-3-0-1--||-0-0-0-1-0-3-0-4-0-3-0-1-|-----|-----||
e e3 e} e{ e3 e} e{ e3 e} e{ e3 e} e{ e3 e} e{ e3 e} e{ e3 e} e{ e3 e

guitar solo
|-------------------------|--------------------|-------------------------|
|-------------------------|--------------------|-------------------------|
|-------------------------|-----------------/x-|-------------------------|
|-0-0-0-1-0-3-0-0-0-1-0-3-|-0-0-0-1-0-0-3-2----|-0-0-0-1-0-3-0-0-0-1-0-3-|
e e e e e e e e e e e e e e e e e e q q q e e e e e e e e e e e e
3 } { 3 } { 3 } { 3 } { 3 } { 3 } { 3 } { 3 } { 3 } { 3 } { 3

|-------------------------|-------------------------|--------------------|
|-------------------------|-------------------------|--------------------|
|-------------5-3-0-0-----|-------------------------|-----------------/x-|
|-0-0-0-3-0-0---------5-3-|-0-0-0-0-3-3-0-0-0-0-3-3-|-0-0-0-0-0-0-3-2----|
e e e e e e e e e e e e e e e e e e e e e e e e e e e e e e q q q
3 } { 3 } { 3 } { 3 } { 3 } { 3 } { 3 } { 3 } { 3 } { 3 } { 3

|-------------------------|-------------------------|
|-------------------------|-------------------------|
|-------------------------|-------------5-5-5-5-5-5-|
|-0-0-0-0-3-3-0-0-0-0-3-3-|-0-0-0-0-0-0-------------|
e e3 e} e{ e3 e} e{ e3 e} e{ e3 e} e{ e3 e} e{ e3 e} e{ e3 e} e{ e3 e

|-------------------------|--------------------|-------------------------|
|-------------------------|--------------------|-------------------------|
|-------------------------|-----------------/x-|-------------------------|
|-5-5-5-5-5-5-5-8-5-8-5-7-|-5-5-5-5-5-5-8-5----|-5-5-5-5-5-5-5-8-5-8-5-7-|
e e e e e e e e e e e e e e e e e e q q q e e e e e e e e e e e e
3 } { 3 } { 3 } { 3 } { 3 } { 3 } { 3 } { 3 } { 3 } { 3 } { 3

|-------------------------|-------------------------|-------------------|
|-------------5-5-5-5-5-5-|-------------------------|-------------------|
|-------------------------|---0-0-3-0-0---0-0-3-0-0-|---0-0-3-0-0-1-0-0-|
|-5-5-5-5-5-5-------------|-5-----------5-----------|-5-----------------|
e e e e e e e e e e e e e e e e e e e e e e e e e e e e e e q q q
3 } { 3 } { 3 } { 3 } { 3 } { 3 } { 3 } { 3 } { 3 } { 3 } { 3

|-------------------------|-------------2-2-2-2-2-2-|--------||
|-------------------------|-------------------------|--------||
|---0-0-3-0-0---0-0-3-0-0-|---0-0-0-0-0-------------|--------||
|-5-----------5-----------|-5-----------------------|-0------||
e e e e e e e e e e e e e e e e e e e e e e e e w
3 } { 3 } { 3 } { 3 } { 3 } { 3 } { 3 } { 3

|-----|-----|-------------------------|---------------------||
|-----|-----|-------------------------|---------------------||
|-----|-----|-------------------------|------------------x\-||
|-----|-----|-0-0-0-0-0-0-0-0-0-0-0-0-|-0-0-0-0-0-0---x\----||
W W e e e e e e e e e e e e e e e e e e e q q
3 } { 3 } { 3 } { 3 } { 3 } { 3 } {3

chorus
||--------------------|-------------------|-------------------|
||o-------------------|-------------------|-------------------|
||o-----------------1-|-------------------|-----------------4-|
||--0---0-2-1-0---0---|-0---0-2-1-0---0-6-|-0---0-2-1-0---0---|
e E e e e e E e q e E e e e e E e q e E e e e e E e q
3 } { 3 } { 3 } { 3 } { 3 } { 3

4x

|--------------------------||-------------------------||
|-------------------------o||-------------------------||
|-------------------------o||-------------------------||
|-0-0-0-1-0-3-0-4-0-3-0-1--||-0-0-0-1-0-3-0-4-0-3-0-1-||
e e3 e} e{ e3 e} e{ e3 e} e{ e3 e} e{ e3 e} e{ e3 e} e{ e3 e} e{ e3 e

outro repeat & fade
||-----------------------||
||o---------------------o||
||o---------------------o||
||--0-0-0-1-0-0-0-0-1-0--||
e e3 e} e e e{ e3 e e  e 


--=====================_818026792==_
Content-Type: text/plain; charset="us-ascii"

--
dpezet@accessorl.net

--=====================_818026792==_--

Oceń to opracowanie
Kontrybucje:
Punko
Punko
anonim