0
0

CrushCrushCrush Paramore

Tekst piosenki i chwyty na gitarę

  • Chwyty na gitarę Invidia
    8 ulubionych
Chords used:
cis - x46654
E - 022100
B - x24442
A - x02220
Gis/C - x365xx
G#m - 466444
Fis/Bb - x143xx


Intro: Gis/C

Verse 1:
cisI got a lot to Esay to you
Yeah, BI got a lot to cissay
I cisnoticed your eyes are Ealways glued to me
BKeeping them here And it makes no sense at all


Refrain:
AThey taped over your Bmouth
Scribbled out the cistruth with their lies
You little spies
(Repeat)


Interlude: A--gis-Gis/C

Guitar 2:
e|-11-12-11--------12--11-|
B|----------12------------|
G|-------------11---------|
D|------------------------|
A|------------------------|
E|------------------------|


C#m(hold)
Crush Crush Crush
Crush, crush
(Two, three, four!)


Chorus 1:
cisNothing comEpares Bto a quiet evening alone
A  Just the cisone Btwo of us who's counting on
cisThat never EhapBpens I guess I'm dreaming again
A B(hold)
Let's be more than this


Interlude: cis--B (x2) Gis/C

Guitar 2:
e|-4-5-4-2-0-----------------|-4-5-4-2-0------------9-|
B|-----------4-5-4-2-0--0--0-|-----------4-5-4-2-0----|
G|---------------------------|------------------------|
D|---------------------------|------------------------|
A|---------------------------|------------------------|
E|---------------------------|------------------------|


Verse 2:
If cisyou want to play it Elike a game
Well, Bcome on, come on, let's cisplay
Cause cisI'd rather waste my Elife pretending
Than Bhave to forget you for one whole minute


(Repeat Refrain and Chorus 1)


Interlude: cis-E-B (x2)


Bridge:
cisRock and Eroll, Bbaby
Don't you know that ciswe're all aElone Bnow?
I need something to sing about
(Repeat 4x)


Chorus 2:
cisNothing comEpares Bto a quiet evening alone
A  Just the cisone Btwo of us who's Gis/Ccounting on
cisThat never EhapBpens I guess I'm dreaming again
A  Let's be more Bthan this


(Repeat Chorus 1)


Outro: cis--Gis/C--B--Fis/Bb--A--B-Gis/C-C#m(hold)

Guitar 2:
e|-12--11--12-11-9--11-12--11--12-9------5-4---------11-12-11-12-14-12-11-12-21-|
B|-----------------------------------5-5---------5-4----------------------------|
G|---------------------------------------------4--------------------------------|
D|-------------------------------------------2----------------------------------|
A|------------------------------------------------------------------------------|
E|------------------------------------------------------------------------------|





Tabulatura:



INTRO-
|---------|
|---------|
|---------|
|---666---|
|---444---|
|---------|

VERSE-

Guitar1

|-------------------------------------------|
|-------------------------------------------|
|-------------------------------------------|
|--66666666-99999999-44444444-66666666------|
|--44444444-77777777-22222222-44444444------|
|-------------------------------------------|
******** ******** ******** ********
|-------------------------------------------|
|-------------------------------------------|
|-------------------------------------------|
|--66666666-99999999-444444444444-----------|
|--44444444-77777777-222222222222-----------|
|-------------------------------------------|
******** ******** ************
Guitar2

|-------------------------------------------|
|-------------------------------------------|
|-66-88--66--88--66--88--66--88-66--88------|
|-------------------------------------------|
|-------------------------------------------|
|-------------------------------------------|
** ** ** ** ** ** ** ** ** **

Ref.1

|-------------------------|------------------------------|
|-------------------------|------------------------------|
|-------------------------|------------------------------|
|-----7~-----9~-----11~---|--7~-----9~-----11~-----------|
|-----7~-----9~-----11~---|--7~-----9~-----11~-----------|
|-----7~-----9~-----11~---|--7~-----9~-----11~-----------|

Guitar2
|-------------------------|----------------------------|
|----2~----4~----5~-------|----2~----4~----5~----------|
|----2~----4~----6~-------|----2~----4~----6~----------|
|----2~----4~----6~-------|----2~----4~----6~----------|
|----0~----2~----4~-------|----0~----2~----4~----------|
|-------------------------|----------------------------|

interlude1
G1|-------------------------------------------|
|-------------------------------------------|
|-------------------------------------------|
|----77---777----766-66---------------------|
|----77---777----766-66-----(BREAK)---------|
|----77---777----766-66---------------------|

Gsus2|----11-12-11--------12--11-----------------|
|------------12-----------------------------|
|---------------11--------------------------|
|-------------------------------------------|
|-------------------------------------------|
|-------------------------------------------|

REFRAIN2
crush...............crush...
|-------------------------------------------|
|-------------------------------------------|
|-------------------------------------------|
|------6~-----------------6~----------------|
|------4~-----------------4~----------------|
|-------------------------------------------|

Chorus
|--------------------|-----------------------|
|--------------------|-----------------------|
|--------------------|-----------------------|
|--66----22-----4~---|--77----66----4~-------|
|--44----22-----2~---|--77----44----2~-------|
|--------22----------|--77-------------------|

|--------------------|---------------------------|
|--------------------|---------------------------|
|--------------------|---------------------------|
|--66----22-----4~---|--77777777-99999-----------|
|--44----22-----2~---|--77777777-99999-(break)---|
|--------22----------|--77777777-99999-----------|

interlude2
G1|-------------------------------------------|
|-------------------------------------------|
|-------------------------------------------|
|----11-11-11-9-9-9-9-9-11-11-11-9-9-9------|
|----11-11-11-9-9-9-9-9-11-11-11-9-9-9------|
|----11-11-11-9-9-9-9-9-11-11-11-9-9-9------|

Gsus2|---------------------------------|-------------------------------------|
|---------------------------------|-------------------------------------|
|---------------------------------|-------------------------------------|
|-----6-7-6-----------------------|-6-7-6---------------------11~-------|
|-----------9--7---6-7-6-4-2--2-2-|-------9--7---6-7-6------------------|
|---------------------------------|---------------------11-9------------|



repeat verse,ref1,interlude1,ref2,chorus,


Bridge.
G1|-------------------------------------------|
|-------------------------------------------|
|-------------------------------------------|
|--6--2--9---77----6--2--9---77-------------|4x
|--4--2--9---77----4--2--9---77-------------|
|-----2--9---77-------2--9---77-------------|

enters at pt3
Guitar2
|-----------------------------------|
|-171717-161616-141414-161614141616-|
|-131313-131313-131313-131313131313-|
|-----------------------------------|
|-----------------------------------|
|-----------------------------------|

Chorus
G1|--------------------|-----------------------|
|--------------------|-----------------------|
|--------------------|-----------------------|
|--666--222-4444444--|--777----666----44444~-|
|--444--222-2222222--|--777----444----22222~-|
|-------222----------|--777------------------|

|--------------------|---------------------------|
|--------------------|---------------------------|
|--------------------|---------------------------|
|--66----22-----4~---|--77777777-99999-----------|
|--44----22-----2~---|--77777777-99999-----------|
|--------22----------|--77777777-99999-----------|

|--------------------|-----------------------|
|--------------------|-----------------------|
|--------------------|-----------------------|
|--66----22-----4~---|--77----66----4~-------|
|--44----22-----2~---|--77----44----2~-------|
|--------22----------|--77-------------------|

|--------------------|---------------------------|
|--------------------|---------------------------|
|--------------------|---------------------------|
|--66----22-----4~---|--77777777-99999-----------|
|--44----22-----2~---|--77777777-99999-----------|
|--------22----------|--77777777-99999-----------|


OUTRO-
GUITAR1
|--------------------------------------------------------------|
|--------------------------------------------------------------|
|--------------------------------------------------------------|
|--66666666-66666666-44444444-44444444-2222222-44444444---6----|END
|--44444444-33333333-22222222-11111111-0000000-22222222---4----|
|--------------------------------------------------------------|

Guitar2-not sure

|-12~-11~-12~-11~----11~-12~-11~-------------------------------|
|----------------14~------------14~----------------------------|
|--------------------------------------------------------------|
|--------------------------------------------------------------|
|--------------------------------------------------------------|
|--------------------------------------------------------------|

|------------------------------11-12--11-12--14-16--14-16-/22--|
|---------------12-14--12-14-----------------------------------|
|----11--13-14-------------------------------------------------|
|-14-----------------------------------------------------------|
|--------------------------------------------------------------|
|--------------------------------------------------------------|

tab2
GUITAR1-drop cis
GUITAR2-dropc#

INTRO-

|-------------|
|-------------|
|-------------|
|---7-7-7-----|
|---5-5-5-----|
|-------------|

VERSE-

Guitar1

|-------------------------------------------|
|-------------------------------------------|
|-------------------------------------------|
|--77777777-10101010-55555555-77777777------|
|--55555555-88888888-33333333-55555555------|
|-------------------------------------------|
******** ******** ******** ********
|-------------------------------------------|
|-------------------------------------------|
|-------------------------------------------|
|--77777777-10101010-555555555555-----------|
|--55555555-88888888-333333333333-----------|
|-------------------------------------------|
******** ******** ************
Guitar2

|---------------------------------------------|
|---------------------------------------------|
|-77-99-77-99--77-99--77-99--77-99------------|
|---------------------------------------------|
|---------------------------------------------|
|---------------------------------------------|
** ** ** ** ** ** ** ** ** **

Ref.1

|-------------------------|------------------------------|
|-------------------------|------------------------------|
|-------------------------|------------------------------|
|-----8~----10~-----12~---|--8~----10~-----12~-----------|
|-----8~----10~-----12~---|--8~----10~-----12~-----------|
|-----8~----10~-----12~---|--8~----10~-----12~-----------|

Guitar2
|-------------------------|------------------------------|
|-----3~----5~------6~----|--3~----5~------6~------------|
|-----3~----5~------7~----|--3~----5~------7~------------|
|-----3~----5~------7~----|--3~----5~------7~------------|
|-----1~----3~------5~----|--1~----3~------5~------------|
|-------------------------|------------------------------|

interlude1
G1|-------------------------------------------|
|-------------------------------------------|
|-------------------------------------------|
|----88---888----877-77---------------------|
|----88---888----877-77-----(BREAK)---------|
|----88---888----877-77---------------------|

Gsus2|----12-13-12--------13--12-----------------|
|------------13-----------------------------|
|---------------12--------------------------|
|-------------------------------------------|
|-------------------------------------------|
|-------------------------------------------|

REFRAIN2
crush...............crush...



Gtr1
|-------------------------------------------|
|-------------------------------------------|
|-------------------------------------------|
|-----0~-----------------0~-----------------|
|-----0~-----------------0~-----------------|
|-----0~-----------------0~-----------------|

Gtr2
|-------------------------------------------|
|-------------------------------------------|
|-------------------------------------------|
|------7~-----------------7~----------------|
|------5~-----------------5~----------------|
|-------------------------------------------|

Chorus
Gtr1
|--------------------|-----------------------|
|--------------------|-----------------------|
|--------------------|----------------------|
|--00----33-----5~---|--88----00----5~-------|
|--00----33-----3~---|--88----00----3~-------|
|--00----33----------|--88----00-------------|

|--------------------|------------------------------|
|--------------------|------------------------------|
|--------------------|------------------------------|
|--00----33-----5~---|--88888888-1010101010---------|
|--00----33-----3~---|--88888888-1010101010-(break)-|
|--00----33----------|--88888888-1010101010---------|

Gtr2
|--------------------|-----------------------|
|--------------------|-----------------------|
|--------------------|-----------------------|
|--77----33-----5~---|--88----77----5~-------|
|--55----33-----3~---|--88----55----3~-------|
|--------33----------|--88-------------------|

|--------------------|------------------------------|
|--------------------|------------------------------|
|--------------------|------------------------------|
|--77----33-----5~---|--88888888-1010101010---------|
|--55----33-----3~---|--88888888-1010101010-(break)-|
|--------33----------|--88888888-1010101010---------|

interlude2
G1|-------------------------------------------|
|-------------------------------------------|
|-------------------------------------------|
|---12-12-12-1010101010-12-12-12--10-10-10--|
|---12-12-12-1010101010-12-12-12--10-10-10--|
|---12-12-12-1010101010-12-12-12--10-10-10--|

Gsus2|---------------------------------|-------------------------------------|
|---------------------------------|-------------------------------------|
|---------------------------------|-------------------------------------|
|-----7-8-7-----------------------|7-8-7---------------------12~--------|
|-----------10-8---7-8-7----------|-------10-8---7-8-7------------------|
|-----------------------10-8--8-8-|---------------------10-8------------|

or
Gsus2|---------------------------------|-------------------------------------|
|-10-12-10------------------------|-10-12-10-----------------------15~--|
|---------12-10-9-10-9------------|---------12-10-9-10-9----------------|
|---------------------12-10-10-10-|----------------------12-10----------|
|---------------------------------|-------------------------------------|
|---------------------------------|-------------------------------------|

repeat verse,ref1,interlude1,ref2,chorus,


Bridge.
G1|----------------------------------------------------|
|----------------------------------------------------|
|----------------------------------------------------|
|--0---3---5---33----0---3---5----33-----------------|4x
|--0---3---3---11----0---3---3----11-----------------|
|--0---3-------------0---3---------------------------|

enters at pt3
Guitar2
|-131313-121212-101010-121210101212-|
|-101010-101010-101010-101010101010-|
|-----------------------------------|
|-----------------------------------|
|-----------------------------------|
|-----------------------------------|



do Chorus


OUTRO-
GUITAR1
|--------------------------------------------------------------|
|--------------------------------------------------------------|
|--------------------------------------------------------------|
|--77777777-77777777-55555555-55555555-3333333-55555555---7----|END
|--55555555-44444444-33333333-22222222-1111111-33333333---5----|
|--------------------------------------------------------------|

Guitar2-not sure

|-13~-12~-13~-12~----12~-13~-12~-------------------------------|
|----------------15~------------15~----------------------------|
|--------------------------------------------------------------|
|--------------------------------------------------------------|
|--------------------------------------------------------------|
|--------------------------------------------------------------|

|------------------------------12-13--12-13--15-17--15-17-/23--|
|---------------13-15--13-15-----------------------------------|
|----13--14-15-------------------------------------------------|
|-15-----------------------------------------------------------|
|--------------------------------------------------------------|
|--------------------------------------------------------------|</pre></font>


Oceń to opracowanie
Kontrybucje:
Invidia
Invidia
anonim