Wakacyjny Konkurs Śpiewnikowy
Wakacyjny Konkurs Śpiewnikowy
Popraw Opracowanie Usuń
Transponuj
0

Decode (Twilight-Zmierzch) Paramore

Tekst piosenki i chwyty na gitarę

  • Chwyty na gitarę rocky_aga
    8 ulubionych
PARAMORE-Decode

Guitar 1 (Lead): Intro and Verse
e|--------------------9---------------------9-------------------------|
B|----11---11---11---------11----11---11------------------------------|
G|-------10---10---10---10----10---10----10---10----------------------|
D|--------------------------------------------------------------------|
A|--------------------------------------------------------------------|
E|--------------------------------------------------------------------|

e|-------------------13-------------------11--------------------------|
B|--11---11----11---------11----11----11------------------------------|
G|-----13---13----13---13----13----13---------------------------------|
D|--------------------------------------------------------------------|
A|--------------------------------------------------------------------|
E|--------------------------------------------------------------------|
^4 Times till chorus^

Guitar 2 (Rhythm): Verse
e|--------------------------------------------------------------------|
B|--------------------------------------------------------------------|
G|-----------------------------------3333333333333333-----------------|
D|-4444444444444444-1111111111111111-3333333333333333-3333333333333333|
A|-4444444444444444-1111111111111111-1111111111111111-3333333333333333|
D|-4444444444444444-1111111111111111------------------3333333333333333|
   xxxxxxxxxxxxxxxx xxxxxxxxxxxxxxxx xxxxxxxxxxxxxxxx xxxxxxxxxxxxxxxx
^2 Times till pre-chorus^

Guitar 2: Pre-Chorus
e|--------------------------------------------------------------------|
B|--------------------------------------------------------------------|
G|-----------------------------------3--------------------------------|
D|-4----------------1----------------3----------------3333333333333333|
A|-4----------------1----------------1----------------3333333333333333|
D|-4----------------1---------------------------------3333333333333333|
                                                      xxxxxxxxx

Guitar 1: Chorus (this part is very similar to the verse)
e|------------------9~------------------------9~----------------------|
B|-11----11----11—----------11-----11----11---------------------------|
G|----10----10---10-------------10----10---10-------------------------|
D|--------------------------------------------------------------------|
A|--------------------------------------------------------------------|
D|--------------------------------------------------------------------|

e|-------------------13-----11~---------------------------------------|
B|-11----11----11-----------------------------------------------------|
G|----13----13----13----13--------------------------------------------|
D|--------------------------------------------------------------------|
A|--------------------------------------------------------------------|
D|--------------------------------------------------------------------|
^2 Times through chorus^

Guitar 2: Chorus
e|--------------------------------------------------------------------|
B|--------------------------------------------------------------------|
G|-----------------------------------3-3-3-3-3-3-3-3------------------|
D|-4-4-4-4-4-4-4-4—-1-1-1-1-1-1-1-1—-3-3-3-3-3-3-3-3—-3-3-3-3-3-3-3-3-|
A|-4-4-4-4-4-4-4-4—-1-1-1-1-1-1-1-1—-1-1-1-1-1-1-1-1--3-3-3-3-3-3-3-3-|
D|-4-4-4-4-4-4-4-4—-1-1-1-1-1-1-1-1—----------------—-3-3-3-3-3-3-3-3-|
^2 times through chorus^

Guitar 1: Pre-Verse
e|--------------------------------------------------------------------|
B|-11----11----11----11-----9---9---9---------------------------------|
G|----10----10----10----10----8---8---8~------------------------------|
D|--------------------------------------------------------------------|
A|--------------------------------------------------------------------|
D|--------------------------------------------------------------------|

Guitar 2: Pre-Verse
e|-------------------------------------|
B|-------------------------------------|
G|-3----------------6------------------|
D|-3----------------6-----6----------3-|
A|-1----------------4-----6----------3-|
D|------------------------6----------3-|


Repeat verse and chorus once

Guitar 1: Solo
e|----------------------------13-------------------------------13-----|
B|--13h14h13-11--13h14h13-11-----11--13h14h13-11--13h14h13-11-----11--|
G|--------------------------------------------------------------------|
D|--------------------------------------------------------------------|
A|--------------------------------------------------------------------|
D|--------------------------------------------------------------------|

e|--------------------------------------------------------------------|
B|-13h14h13-11-11-9-9-------------------------------------------------|
G|------------------------5-6—8~--------------------------------------|
D|--------------------------------------------------------------------|
A|--------------------------------------------------------------------|
D|--------------------------------------------------------------------|

e|----------------------------13-------------------------------13-----|
B|--13h14h13-11--13h14h13-11-----11--13h14h13-11--13h14h13-11-----11--|
G|--------------------------------------------------------------------|
D|--------------------------------------------------------------------|
A|--------------------------------------------------------------------|
D|--------------------------------------------------------------------|

e|---------------------16--18-----------------------------------------|
B|-13---13/14--14-14----------14---13~--------------------------------|
G|--------------------------------------------------------------------|
D|--------------------------------------------------------------------|
A|--------------------------------------------------------------------|
D|--------------------------------------------------------------------|

Guitar 2: During Solo
e|--------------------------------------------------------------------|
B|--------------------------------------------------------------------|
G|-----------------------------------3--------------------------------|
D|-4----------------1----------------3----------------3---------------|
A|-4----------------1----------------1----------------3---------------|
D|-4----------------1---------------------------------3---------------|
^2 times^

Guitar 1: Bridge
e|-10--------------------9----------------------13-----------------11-|
B|-11-------------------11----------------------11-----------------11-|
G|-10-------------------10----------------------13------------------8-|
D|--------------------------------------------------------------------|
A|--------------------------------------------------------------------|
D|--------------------------------------------------------------------|
^2 times^

Play chorus through twice

Guitar 1: Outro
e|------------13----------------------------13------------------------|
B|-14-13--11----11---14---16-----14-13--11----11---14---16------------|
G|---------------------------13~---------------------------13~--------|
D|--------------------------------------------------------------------|
A|--------------------------------------------------------------------|
D|--------------------------------------------------------------------|

e|------------13----------------------------13------------------------|
B|-14-13--11----11---14---16-----14-13--11----11---14---16------------|
G|---------------------------13~---------------------------13~--------|
D|--------------------------------------------------------------------|
A|--------------------------------------------------------------------|
D|--------------------------------------------------------------------|

e|--------------------------------------------------------------------|
B|-14-14-14~------p13-------------------------------------------------|
G|--------------------------------------------------------------------|
D|--------------------------------------------------------------------|
A|--------------------------------------------------------------------|
D|--------------------------------------------------------------------|

Guitar 2: Outro
e|--------------------------------------------------------------------|
B|--------------------------------------------------------------------|
G|-------------3--------3-----------------------3--------3------------|
D|-4---6---1---3-3--4---3---3---6---4---6---1---3-3--4---3---3---1-1-1|
A|-4---6---1---1-3--4---1---3---6---4---6---1---1-3--4---1---3---1-1-1|
D|-4---6---1-----3--4-------3---6---4---6---1-----3--4-------3---1-1-1|


| /  slide up
| \  slide down
| h  hammer-on
| p  pull-off
| ~  vibrato
| +  harmonic
| x  Mute note
=======================================================================













Lyrics:

How could I decide what's right when your clouding up my mind
I can't win your losing fight all the time
Nor could I ever own what's mine when you're always taking sides
Well, you won't take away my pride, no not this time
Not this time




Chorus:
How did we get here? Well, I used to know you so well
How did we get here I think I know


The truth is hiding in your eyes and it's hanging on your tongue
Just boiling in my blood but you think that I can't see
What kind of man that you are, if you're a man at all
Well I will figure this one out on my own
On my own
(I'm screaming "I love you so… but my thoughts you can't decode)

Chorus

Do you see what we've done?
We're gonna make such fools of ourselves
Do you see what we've done?
We're gonna make such fools of ourselves

How did we get here? Well, I used to know you so well
How did we get here? Well, I used to know you so well

I think I know, I think I know
There is something I see in you
It might kill me, I want it to be true

Oceń to opracowanie
Ocena czytelników: Doskonały 2 głosy

Kontrybucje
rocky_aga

Wakacyjny Konkurs Śpiewnikowy

Pula nagród w konkursie ponad 10.000 zł!
Przysyłaj opracowania piosenek i zdobądź bony na zakupy w sklepie muzycznym.
Zapoznaj się z regulaminem konkursu.
anonim