Angel On Fire Pearl Jam

Tekst piosenki

  • Tekst piosenki -=art=-
Standard tuning
Lyrics aren't lined up perfectly, they're my guesses
combined with help from the unofficial soundgarden site
The outro is two guitars combined into one

-|----------------3---3------0---0------3--3--0--2--3p2--0---0--------------|-
-|----------------3-----3----1-----1----3--------3-------1-----1------------|-
-|----------------0-------0--0-------0--0--------2-------0-------0--0--0--0-|-
-|----------------0----------2----------0--------0-------2----------0--0--0-|-
-|----------------2----------3----------2----------------3----------2--2--2-|-
-|----------------3---------------------3---------------------------3--3--3-|-
She stands on her suitcase looks out her window at

-|-2---2--------0-----------0-2---2-----------------|-------------------------
-|-3-----3--------3------3--3-3-----3-----1--1--1---|-------------------------
-|-2-------2--------2----2----2-------0---0--0--0---|-------------------------
-|-0------------------3-------0-----------2--2--2---|-------------------------
-|-----------3----------------------------3--3--3---|-------------------------
-|--------------------------------------------------|-------------------------
Me the smile leaves

-|-3---3------0---0------3---3----2---3p2-0--0---0----------------|-----------
-|-3-----3----1-----1----3-----3--3----------1-----1--------------|-----------
-|-0-------0--0-------0--0--------2----------0-------0--0--0--0---|-----------
-|-0----------2----------0--------0----------2----------0--0--0---|-----------
-|-2----------3----------2-------------------3----------2--2--2---|-----------
-|-3---------------------3------------------------------3--3--3---|-----------
her face mirror don't like what it

-|-2---2-----------0----------0----2---2--2---|-------------------------------
-|-3-----3-----------3----------3--3---3--3---|-------------------------------
-|-2-------2-----2-----2----2------2------2---|-------------------------------
-|-0-----------0---------3---------0------0---|-------------------------------
-|-----------3--------------------------------|-------------------------------
-|--------------------------------------------|-------------------------------
Sees so she

-|-0--0--0--3---------------------0--0--0--3--3--3--|-------------------------
-|-1--1--1--3---------------------1--1--1--3--3--3--|-------------------------
-|-0--0--0--0---------------------0--0--0--0--0--0--|-------------------------
-|-2--2--2--0---------------------2--2--2--0--0--0--|-------------------------
-|-3--3--3--2---------------------3--3--3--2--2--2--|-------------------------
-|----------3------------------------------3--3--3--|-------------------------
Hides all her secrets she's thinking that I'll never

-|-2---2-----------0----------0-----2---0---0--|------------------------------
-|-3-----3-----------3------3---3-3-3-----3----|------------------------------
-|-2-------2-----2-----2----------2-2----------|------------------------------
-|-0-----------0---------3----------0----------|------------------------------
-|-----------3---------------------------------|------------------------------
-|---------------------------------------------|------------------------------
Know that she

-|-0--0--0--------0---------0--0--0------------|------------------------------
-|-1--1--1--------0----2----1--1--1------------|------------------------------
-|-0--0--0--------0----2----0--0--0--0--0--0---|------------------------------
-|-2--2--2---2----0----2----2--2--2--0--0--0---|------------------------------
-|-3--3--3---2----2----0----3--3--3--2--2--2---|------------------------------
-|-----------0-----------------------3--3--3---|------------------------------
Burns like an angel into her fire she

-|-2---2-----------0-----------0-2------0------|------------------------------
-|-3-----3-----------3------3--3-3---1--1--1---|------------------------------
-|-2-------2-----2-----2----2----2---0--0--0---|------------------------------
-|-0-----------0---------3-------0-------------|------------------------------
-|-----------3---------------------------------|------------------------------
-|---------------------------------------------|------------------------------
Goes she don't miss

-|-3---3------0---0------3---3--0--2---3p2-0--0---0----------------|----------
-|-3-----3----1-----1----3---------3----------1-----1--------------|----------
-|-0-------0--0-------0--0---------2----------0-------0--0--0--0---|----------
-|-0----------2----------0---------0----------2----------0--0--0---|----------
-|-2----------3----------2--------------------3----------2--2--2---|----------
-|-3---------------------3-------------------------------3--3--3---|----------
Nothing Though she pretends she don't

-|-2---2--------0-----------0-2---2------0--0--0---|--------------------------
-|-3-----3--------3------3----3-----3----1--1--1---|--------------------------
-|-2-------2--------2----2----2-------2--0--0--0---|--------------------------
-|-0------------------3-------0----------2--2--2---|--------------------------
-|-----------3---------------------------3--3--3---|--------------------------
-|-------------------------------------------------|--------------------------
See everything she's watching

-|-3---3------0---0------3---3---2---3p2---0---0----------3-------|-----------
-|-3-----3----1-----1----3-------3---------1-----1----------3-----|-----------
-|-0-------0--0-------0--0-------2---------0-------0--0-------0---|-----------
-|-0----------2----------0-------0---------2----------0-----------|-----------
-|-2----------3----------2-----------------3----------2-----------|-----------
-|-3---------------------3----------------------------3-----------|-----------
She puts her hand next to

-|-2---2--------0----------0-----2---2-2---|----------------------------------
-|-3-----3--------3------3---3-x-3---3-3---|----------------------------------
-|-2-------2--------2----------x-2-----2---|----------------------------------
-|-0------------------3----------0-----0---|----------------------------------
-|-----------3-----------------------------|----------------------------------
-|-----------------------------------------|----------------------------------
Me She says

-|-0--0--0--3---------------------0--0--0--3--3--3---|------------------------
-|-1--1--1--3---------------------1--1--1--3--3--3---|------------------------
-|-0--0--0--0---------------------0--0--0--0--0--0---|------------------------
-|-2--2--2--0---------------------2--2--2--0--0--0---|------------------------
-|-3--3--3--2---------------------3--3--3--2--2--2---|------------------------
-|----------3------------------------------3--3--3---|------------------------
Give me one reason why I should be here a-

-|-2---2-----------0--------0-----2---2-------|-------------------------------
-|-3-----3-----------3--------3---3-----3-----|-------------------------------
-|-2-------2-----2-----2--------2-2-------2---|-------------------------------
-|-0-----------0---------3--------0-----------|-------------------------------
-|-----------3--------------------------------|-------------------------------
-|--------------------------------------------|-------------------------------
-gain but then she

-|-0--0--0-------0--------------0----3--3--3---|------------------------------
-|-1--1--1-------0----2---2-2-1-1----3--3--3---|------------------------------
-|-0--0--0-------0----2---------0----0--0--0---|------------------------------
-|-2--2--2--2----0----2---------2----0--0--0---|------------------------------
-|-3--3--3--2----2----0---------3----2--2--2---|------------------------------
-|----------0------------------------3--3--3---|------------------------------
Blows out the candle shows me the reason

-|-2---2----------0--------0--2---2-2-2--0--0--0---|--------------------------
-|-3-----3----------3------3--3---3-3-3--1--1--1---|--------------------------
-|-2-------2----2-----2-------2-----2----0--0--0---|--------------------------
-|-0--------------------3-----0----------2--2--2---|--------------------------
-|-----------3---------------------------3--3--3---|--------------------------
-|-------------------------------------------------|--------------------------
Yeah cuz she burns like an

-|------10------10------8------8-----7-----7\----3-----3-----3-------|--------
-|---12------12------10-----10-----8-----8-----5---5-------3---3---0-|--------
-|-0-------0-------0------0------0-----0-----5-------5---0-------0---|--------
-|-------------------------------------------------------------------|--------
-|-------------------------------------------------------------------|--------
-|-------------------------------------------------------------------|--------
Angel she burns like an angel on

-|-----2-------3----3-2-5---5---5---|-0---0-----1-------1---3---3---3---|-----
-|---3---3---3----------3-----------|-1-----1-----1---1---1-1-------1---|-----
-|-2-------2------2-----------------|-0-------0-----0-------------------|-----
-|----------------------------------|-2---------------------------------|-----
-|----------------------------------|-3---------------------------------|-----
-|----------------------------------|-----------------------------------|-----
Fire on fire no

-|-5---5-----5-------5---5---5---5--|-----------------------------------|-----
-|-2-----2-----3---3---3-5---5---5--|-----------------------------------|-----
-|-2-------2-----2------------------|----------------------2------------|-----
-|-2--------------------------------|------------2---------2------------|-----
-|-0--------------------------------|---------3--0------3--0------------|-----
-|----------------------------------|---0--3---------3------------------|-----
After the

-|-3---3------0---0-----3---3------2---3p2--0---0----------------|------------
-|-3-----3----1-----1---3-----3----3--------1-----1--------------|------------
-|-0-------0--0---------0-------0--2--------0-------0--0--0--0---|------------
-|-0----------2---------0----------0--------2----------0--0--0---|------------
-|-2----------3---------2-------------------3----------2--2--2---|------------
-|-3--------------------3------------------------------3--3--3---|------------
Movie walk in the park with her

-|-2---2--------0--------0--x-2---2-2---0--0--0---|---------------------------
-|-3-----3--------3------3----3---3-3---1--1--1---|---------------------------
-|-2-------2--------2----2----2-----2---0--0--0---|---------------------------
-|-0------------------3-------0-----0---2--2--2---|---------------------------
-|-----------3--------------------------3--3--3---|---------------------------
-|------------------------------------------------|---------------------------
Friend she tells it to

-|-3---3------0---0------3---3------2---3p2--0---0----------------|-----------
-|-3-----3----1-----1----3-----3----3--------1-----1--------------|-----------
-|-0-------0--0-------0--0-------0--2--------0-------0--0--0--0---|-----------
-|-0----------2----------0----------0--------2----------0--0--0---|-----------
-|-2----------3----------2-------------------3----------2--2--2---|-----------
-|-3---------------------3------------------------------3--3--3---|-----------
Her straight he don't mean nothing to

-|-2---2-----------0--------0--x-2---2-2---|----------------------------------
-|-3-----3-----------3------3----3---3-3---|----------------------------------
-|-2-------2-----2-----2----2----2-----2---|----------------------------------
-|-0-----------0---------3-------0-----0---|----------------------------------
-|-----------3-----------------------------|----------------------------------
-|-----------------------------------------|----------------------------------
Me She said

-|-0--0--0--3---------------------0--0--0--3--3--3---|------------------------
-|-1--1--1--3---------------------1--1--1--3--3--3---|------------------------
-|-0--0--0--0---------------------0--0--0--0--0--0---|------------------------
-|-2--2--2--0---------------------2--2--2--0--0--0---|------------------------
-|-3--3--3--2---------------------3--3--3--2--2--2---|------------------------
-|----------3------------------------------3--3--3---|------------------------
I can't believe him if I gave him enough rope he'd hang

-|-2---2--------0--------0--x-2---2---2---|-2-------3----3-2-5---5---5--|-----
-|-3-----3--------3------3----3---3-3-3---|-3---3------------3---3---3--|-----
-|-2-------2--------2----2----2-----2-----|-2-----2----2-----2----------|-----
-|-0------------------3-------0-----------|-0---------------------------|-----
-|-----------3----------------------------|-----------------------------|-----
-|----------------------------------------|-----------------------------|-----
Me(w/Fill 1) Fill 1

-|-0--0--0-------0---------0--0--0--3--3--3---|-------------------------------
-|-1--1--1-------0----2----1--1--1--3--3--3---|-------------------------------
-|-0--0--0-------0----2----0--0--0--0--0--0---|-------------------------------
-|-2--2--2--2----0----2----2--2--2--0--0--0---|-------------------------------
-|-3--3--3--2----2----0----3--3--3--2--2--2---|-------------------------------
-|----------0-----------------------3--3--3---|-------------------------------
But when she turns to him there's nowhere she'd rather

-|-2---2--------0--------0--2----0--0--0---|----------------------------------
-|-3-----3--------3------3--3----1--1--1---|----------------------------------
-|-2-------2--------2-------2----0--0--0---|----------------------------------
-|-0------------------3-----0----2--2--2---|----------------------------------
-|-----------3-------------------3--3--3---|----------------------------------
-|-----------------------------------------|----------------------------------
Be Cuz she burns like an

-|------10------10------8------8-----7-----7\----3-----3-----3-------|--------
-|---12------12------10-----10-----8-----8-----5---5-------3---3---0-|--------
-|-0-------0-------0------0------0-----0-----5-------5---0-------0---|--------
-|-------------------------------------------------------------------|--------
-|-------------------------------------------------------------------|--------
-|-------------------------------------------------------------------|--------
Angel she burns like an angel on

-|-----2-------3----3-2-5---5---5---|-0---0-----1-------1---3---3---3---|-----
-|---3---2---2----------3-------3---|-1-----1-----1---1---1-1-------1---|-----
-|-2-------3------2-----------------|-0-------0-----0-------------------|-----
-|----------------------------------|-2---------------------------------|-----
-|----------------------------------|-3---------------------------------|-----
-|----------------------------------|-----------------------------------|-----
Fire no

-|-5---5-----5-------5---5---5---5--|---------------------------------------|-
-|-2-----2-----3---3---3-5---5---5--|---------------------------------------|-
-|-2-------2-----2-------2----------|----------------------2------2---2-2-2-|-
-|-2--------------------------------|------------2---------2---2--2---2-2-2-|-
-|-0--------------------------------|---------3--0------3--0---0--0---0-0-0-|-
-|----------------------------------|---0--3---------3----------------------|-


-|--------------------------------------------|-------------------------------
-|-1---------------------1--------------------|-------------------------------
-|-2----------3---3-3-3--2--------------------|-------------------------------
-|-3---3-3-3--3---3-3-3--3---3-3-3--3--3--3---|-------------------------------
-|-3---3-3-3--1---1-1-1--3---3-3-3--3--3--3---|-------------------------------
-|-1---1-1-1-------------1---1-1-1--1--1--1---|-------------------------------
And she's stuck

-|-----------------------------------------------|----------------------------
-|-----------------------------------------------|----------------------------
-|-5---5-5-5-------------------------------------|----------------------------
-|-5---5-5-5--3---3-3-3--/5--5-5-5-5-5-5-5-5-5-5-|----------------------------
-|-3---3-3-3--3---3-3-3--/5--5-5-5-5-5-5-5-5-5-5-|----------------------------
-|------------1---1-1-1--/3--3-3-3-3-3-3-3-3-3-3-|----------------------------
When she comes on so hot

-|--------------------------------------------|-------------------------------
-|-1---------------------1--------------------|-------------------------------
-|-2----------3---3-3-3--2--------------------|-------------------------------
-|-3---3-3-3--3---3-3-3--3---3-3-3--3---3-3-3-|-------------------------------
-|-3---3-3-3--1---1-1-1--3---3-3-3--3---3-3-3-|-------------------------------
-|-1---1-1-1-------------1---1-1-1--1---1-1-1-|-------------------------------
You could never feel

-|----------------------------------------------|-----------------------------
-|----------------------------------------------|-----------------------------
-|-5---5-5-5-------------3--3-3-3-3-3-3-3-3-3-3-|-----------------------------
-|-5---5-5-5--3---3-3-3--3--3-3-3-3-3-3-3-3-3-3-|-----------------------------
-|-3---3-3-3--3---3-3-3--1--1-1-1-1-1-1-1-1-1-1-|-----------------------------
-|------------1---1-1-1-------------------------|-----------------------------
A suddenly slow burn

-|-------------------------------------------------|--------------------------
-|-1-----------------------1-----------------------|--------------------------
-|-2-----------3---3-3-3---2-----------------------|--------------------------
-|-3---3-3-3---3---3-3-3---3---3-3-3---3---3-3-3---|--------------------------
-|-3---3-3-3---1---1-1-1---3---3-3-3---3---3-3-3---|--------------------------
-|-1---1-1-1---------------1---1-1-1---1---1-1-1---|--------------------------
G1 I'm so hot

-|----13----13----13----13----13----13----13----13-|--------------------------
-|--13----13----13----13----13----13----13----13---|--------------------------
-|------10----10----10----10----10----10----10-----|--------------------------
-|-------------------------------------------------|--------------------------
-|-------------------------------------------------|--------------------------
-|-------------------------------------------------|--------------------------
G2-enters

-|--------------------------------------------------|-------------------------
-|--------------------------------------------------|-------------------------
-|-5---5-5-5----------------------------------------|-------------------------
-|-5---5-5-5---3---3-3-3---5--5-5-5-5-5-5-5-5-5-5---|-------------------------
-|-3---3-3-3---3---3-3-3---5--5-5-5-5-5-5-5-5-5-5---|-------------------------
-|-------------1---1-1-1---3--3-3-3-3-3-3-3-3-3-3---|-------------------------
G1 When I leave her cold

-|-----15----15----15----15----15----15----15----15-|-------------------------
-|---15----15----15----15----15----15----15----15---|-------------------------
-|-12----12----12----12----12----12----12----12-----|-------------------------
-|--------------------------------------------------|-------------------------
-|--------------------------------------------------|-------------------------
-|--------------------------------------------------|-------------------------
Gsus2

-|--------------------------------------------------|-------------------------
-|-1-----------------------1------------------------|-------------------------
-|-2-----------3---3-3-3---2------------------------|-------------------------
-|-3---3-3-3---3---3-3-3---3---3-3-3---3---3-3-3----|-------------------------
-|-3---3-3-3---1---1-1-1---3---3-3-3---3---3-3-3----|-------------------------
-|-1---1-1-1---------------1---1-1-1---1---1-1-1----|-------------------------
G1 Crying in her room

-|-----13----13----13----13----13----13----13----13-|-------------------------
-|---13----13----13----13----13----13----13----13---|-------------------------
-|-10----10----10----10----10----10----10----10-----|-------------------------
-|--------------------------------------------------|-------------------------
-|--------------------------------------------------|-------------------------
-|--------------------------------------------------|-------------------------
Gsus2

-|----------------------------------------------|-----------------------------
-|----------------------------------------------|-----------------------------
-|-5---5-5-5------------------------------------|-----------------------------
-|-5---5-5-5--3---3-3-3--5--5-5-5-5-5-5-5-5-5-5-|-----------------------------
-|-3---3-3-3--3---3-3-3--5--5-5-5-5-5-5-5-5-5-5-|-----------------------------
-|------------1---1-1-1--3--3-3-3-3-3-3-3-3-3-3-|-----------------------------
G1 Like angels always do

-|-----15----15----15----15----15----15----15---|-----------------------------
-|---15----15----15----15----15----15----15-----|-----------------------------
-|-12----12----12----12----12----12----12-------|-----------------------------
-|----------------------------------------------|-----------------------------
-|----------------------------------------------|-----------------------------
-|----------------------------------------------|-----------------------------
Gsus2

-|-2----------------------------3--3--3--2---2-----3----3-2-5---5---5---|-----
-|-3----------------------------3--3--3--3-----3------------3-------3---|-----
-|-2----------------------------0--0--0--2-------2----2-----------------|-----
-|-0----------------------------0--0--0--0------------------------------|-----
-|------------------------------2--2--2---------------------------------|-----
-|------------------------------3--3--3---------------------------------|-----
You really think I love you just cuz i said so?

-|-0---0-----1-------1---3---3---3---|-5---5-----5-------5---5---5---5---|----
-|-1-----1-----1---1---1-1-------1---|-2-----2-----3---3---3-5---5---5---|----
-|-0-------0-----0-------------------|-2-------2-----2-------------------|----
-|-2---------------------------------|-2---------------------------------|----
-|-3---------------------------------|-0---------------------------------|----
-|-----------------------------------|-----------------------------------|----


-|----------------------------|----0---0-------|------------------------------
-|----------------------------|----1-----------|------------------------------
-|-----------------------2----|----0-----------|------------------------------
-|-------------2---------2----|----2-----------|------------------------------
-|----------3--0------3--0----|----3-----------|------------------------------
-|----0--3---------3----------|----------------|------------------------------
Butterflies

-|------3-----------0-----------3----2---3p2--0---0-----------3-----|---------
-|--------3-----------1-----------3--3--------1-----1-----------3---|---------
-|----0-----0-----0-----0-----0------2--------0-------0-----------0-|---------
-|-0-----------2---------------------0--------2-------------0-------|---------
-|-2-----------3-----------2------------------3-----------2---------|---------
-|-3-----------------------3----------------------------3-----------|---------
Shiver she learns all the things that I

-|-2---2-----------0-----------0---------2-----0---0-----|--------------------
-|-3-----3-----------3-------3---3---3-----3---1-----1---|--------------------
-|-2-------------2-----2---2-------2-2---------0---------|--------------------
-|-0-----------0---------3-----------0---------2---------|--------------------
-|---------0-3---------------------------------3---------|--------------------
-|-------------------------------------------------------|--------------------
Know she's thinking her

-|-----3----------0--------3----2--3p2--0---0----------3------|---------------
-|-------3----1-----1--3-----3--3-------1-----1----------3----|---------------
-|-0-------0--0--------0--------2-------0-------0--0-------0--|---------------
-|-0----------2--------0--------0-------2----------0----------|---------------
-|-2----------3--------2----------------3----------2----------|---------------
-|-3-------------------3---------------------------3----------|---------------
Diary convincing her words as she

-|-2---2----------0-----------0-----2----|------------------------------------
-|-3-----3----------3-------3---3---3----|------------------------------------
-|-2------------2-----2---2-------2-2----|------------------------------------
-|-0----------0---------3-----------0----|------------------------------------
-|----------3----------------------------|------------------------------------
-|---------------------------------------|------------------------------------
Goes She says

-|-0--0--0--3-----------------------0--0--0--3--3--3---|----------------------
-|-1--1--1--3-----------------------1--1--1--3--3--3---|----------------------
-|-0--0--0--0-----------------------0--0--0--0--0--0---|----------------------
-|-2--2--2--0-----------------------2--2--2--0--0--0---|----------------------
-|-3--3--3--2-----------------------3--3--3--2--2--2---|----------------------
-|----------3--------------------------------3--3--3---|----------------------
Heaven forgive me am I going to pay for my

-|-2---2--------0--------0--0-2---|-------------------------------------------
-|-3-----3--------3------3----3---|-------------------------------------------
-|-2-------2--------2----2----2---|-------------------------------------------
-|-0------------------3-------0---|-------------------------------------------
-|-----------3--------------------|-------------------------------------------
-|--------------------------------|-------------------------------------------
Sins(w/Fill 1) no she no she

-|-0--0--0-------0---------0----3--3--3--|------------------------------------
-|-1--1--1-------0----2----1----3--3--3--|------------------------------------
-|-0--0--0-------0----2----0----0--0--0--|------------------------------------
-|-2--2--2--2----0----2----2----0--0--0--|------------------------------------
-|-3--3--3--2----2----0----3----2--2--2--|------------------------------------
-|----------0-------------------3--3--3--|------------------------------------
Burns like an angel everytime she lets me

-|-2---2--------0--------0----2-----0--0--0--|--------------------------------
-|-3-----3--------3--------3--3-----1--1--1--|--------------------------------
-|-2-------2--------2---------2-----0--0--0--|--------------------------------
-|-0------------------3-------0-----2--2--2--|--------------------------------
-|-----------3----------------------3--3--3--|--------------------------------
-|-------------------------------------------|--------------------------------
In yeah she burns like an

-|------10------10------8------8-----7-----7\----3-----3-----3-------|--------
-|---12------12------10-----10-----8-----8-----5---5-------3---3---0-|--------
-|-0-------0-------0------0------0-----0-----5-------5---0-------0---|--------
-|-------------------------------------------------------------------|--------
-|-------------------------------------------------------------------|--------
-|-------------------------------------------------------------------|--------
Angel she burns like an angel on

-|-----2-------3----3-2-5---5---5---|-0---0-----1-------1---3---3---3---|-----
-|---3---3---3----------3-------3---|-1-----1-----1---1---1-1-------1---|-----
-|-2-------2------2-----------------|-0-------0-----0-------------------|-----
-|----------------------------------|-2---------------------------------|-----
-|----------------------------------|-3---------------------------------|-----
-|----------------------------------|-----------------------------------|-----
Fire angel on fire no

-|-5---5-----5-------5---5---5---5--|----------------------2------2---------|-
-|-2-----2-----3---3---3-5---5---5--|----------------------5------5---------|-
-|-2-------2-----2-------2---2---2--|----------------------2---2-----2---2--|-
-|-2--------------------------------|------------2---------2---2-----2---2--|-
-|-0--------------------------------|---------3--0------3--0---0-----0---0--|-
-|----------------------------------|---0--3---------3----------------------|-


-|-----5---5--5---5---5--5---5---5-|------------------------------------------
-|-2-----2----3-----3----5---5---5-|------------------------------------------
-|-2----------2----------2---2---2-|------------------------------------------
-|-2----------2----------2---2---2-|------------------------------------------
-|-0----------0----------0---0---0-|------------------------------------------
-|---------------------------------|------------------------------------------


-|-5---5-5-5--5---5-5-5--5---5-5-5--5---5-5-5--||-----------------------------
-|-5---5-5-5--5---5-5-5--5---5-5-5--5---5-5-5--||-----------------------------
-|-2---2-2-2--2---2-2-2--2---2-2-2--2---2-2-2--||-----------------------------
-|-2---2-2-2--2---2-2-2--2---2-2-2--2---2-2-2--||-----------------------------
-|-0---0-0-0--0---0-0-0--0---0-0-0--0---0-0-0--||-----------------------------
-|---------------------------------------------||-----------------------------
An - gel on fire Repeat and fade

Oceń to opracowanie
Kontrybucje:
-=art=-
-=art=-
anonim