0
0

Aye Davanita Pearl Jam

main riff this is a mixture of the guitar
and bass lines.

------------------------------
------------------------------
--7----7-p-6--6---7---7---7-/-
-(0)--(0)----(0)-(0)-(0)-(0)--
--7----7------7---7---7---7-/-
--0----0------0---0---0---0---

an acoustic guitar plays these chords durring
the entire song: E E E E
===========
hey foxymophandlemama, thatUs me
by Pearl Jam
from the Vitalogy cd
transcribed by kevin gardner
code@wam.umd.edu

main riff this is a mixture of the guitar
and bass lines.

-------------------
-------------------
-------------------
------------------- feed back controlled by
------------------- swelling on the volume knob
--0-0-0-0-0-0-0-0--

Oceń to opracowanie
Kontrybucje:
-=art=-
-=art=-
anonim