0
0

Baba O'Riley Pearl Jam

Tekst piosenki i chwyty na gitarę

  • Chwyty na gitarę -=art=-
-|-----------------------------------------------------------------|----------
-|---------5-5-------------5-5-------------5-5-------------5-5-----|----------
-|-----4-4-----4-4-----4-4-----4-4-----4-4-----4-4-----4-4-----4-4-|----------
-|-2-2-------------2-2-------------2-2-------------2-2-------------|----------
-|-----------------------------------------------------------------|----------
-|-----------------------------------------------------------------|----------
G1 10x

-|-----------------------------------------------------------------|----------
-|---------5-5-------------5-5-------------5-5-------------5-5-----|----------
-|-----4-4-----4-4-----4-4-----4-4-----4-4-----4-4-----4-4-----4-4-|----------
-|-2-2-------------2-2-------------2-2-------------2-2-------------|----------
-|-----------------------------------------------------------------|----------
-|-----------------------------------------------------------------|----------
G1 Out here in the fields

-|-----------------------------------------------------------------|----------
-|---------5-5-------------5-5-------------5-5-------------5-5-----|----------
-|-----4-4-----4-4-----4-4-----4-4-----4-4-----4-4-----4-4-----4-4-|----------
-|-2-2-------------2-2-------------2-2-------------2-2-------------|----------
-|-----------------------------------------------------------------|----------
-|-----------------------------------------------------------------|----------
G1 I fight for my meals

-|-----------------------------------------------------------------|----------
-|---------5-5-------------5-5-------------5-5-------------5-5-----|----------
-|-----4-4-----4-4-----4-4-----4-4-----4-4-----4-4-----4-4-----4-4-|----------
-|-2-2-------------2-2-------------2-2-------------2-2-------------|----------
-|-----------------------------------------------------------------|----------
-|-----------------------------------------------------------------|----------
G1 I get my back into my liv-

-|-----------------------------------------------------------------|----------
-|---------5-5-------------5-5-------------5-5-------------5-5-----|----------
-|-----4-4-----4-4-----4-4-----4-4-----4-4-----4-4-----4-4-----4-4-|----------
-|-2-2-------------2-2-------------2-2-------------2-2-------------|----------
-|-----------------------------------------------------------------|----------
-|-----------------------------------------------------------------|----------
G1 -in'

-|-----------------------------------------------------------------|----------
-|---------5-5-------------5-5-------------5-5-------------5-5-----|----------
-|-----4-4-----4-4-----4-4-----4-4-----4-4-----4-4-----4-4-----4-4-|----------
-|-2-2-------------2-2-------------2-2-------------2-2-------------|----------
-|-----------------------------------------------------------------|----------
-|-----------------------------------------------------------------|----------
G1 I don't need to fight

-|-----------------------------------------------------------------|----------
-|---------5-5-------------5-5-------------5-5-------------5-5-----|----------
-|-----4-4-----4-4-----4-4-----4-4-----4-4-----4-4-----4-4-----4-4-|----------
-|-2-2-------------2-2-------------2-2-------------2-2-------------|----------
-|-----------------------------------------------------------------|----------
-|-----------------------------------------------------------------|----------
G1 To prove I'm right

-|-----------------------------------------------------------------|----------
-|---------5-5-------------5-5-------------5-5-------------5-5-----|----------
-|-----4-4-----4-4-----4-4-----4-4-----4-4-----4-4-----4-4-----4-4-|----------
-|-2-2-------------2-2-------------2-2-------------2-2-------------|----------
-|-----------------------------------------------------------------|----------
-|-----------------------------------------------------------------|----------
G1 I don't need to be forgiv-

-|-----------------------------------------------------------------|----------
-|---------5-5-------------5-5-------------5-5-------------5-5-----|----------
-|-----4-4-----4-4-----4-4-----4-4-----4-4-----4-4-----4-4-----4-4-|----------
-|-2-2-------------2-2-------------2-2-------------2-2-------------|----------
-|-----------------------------------------------------------------|----------
-|-----------------------------------------------------------------|----------
G1 -en no no no no no no

-|----------------------------------------------------------------------|-----
-|--------4---2------------4---2------------4---2------------4---2------|-----
-|--------4---2------------4---2------------4---2------------4---2------|-----
-|--2-----4---2------2-----4---2------2-----4---2------2-----4---2------|-----
-|--2-----2---0------2-----2---0------2-----2---0------2-----2---0------|-----
-|--0----------------0----------------0----------------0----------------|-----
G1+G2

-|--------------------------------------------------------------------------|-
-|--------------------------------------------------------------------------|-
-|-4----4----4----------------------------------------------------------x\--|-
-|-4----4----4----------------------------------------------------------x\--|-
-|-2----2----2----------------------------------------------------------x\--|-
-|--------------------------------------------------------------------------|-
G1+G2 Don't cry don't raise your eye it's only teenage wasteland

-|-----------------------------------------------------------|----------------
-|---------------4---2-------------------------4------2------|----------------
-|---------------4---2-------------------------4------2------|----------------
-|-----2---------4---2------2------------------4------2------|----------------
-|-----2---------2---0------2------------------2------0------|----------------
-|-----0--------------------0--------------------------------|----------------
G1+G2 Sally take my hand we'll travel south 'cross land

-|-------------------------------------------------------------------|--------
-|---------------------4----2----------------------------4----2------|--------
-|---------------------4----2----------------------------4----2------|--------
-|-----2---------------4----2-----------------2----------4----2------|--------
-|-----2---------------2----0-----------------2----------2----0------|--------
-|-----0--------------------------------------0----------------------|--------
G1+G2 Put out the fire and don't look past my shoulder

-|--------------------------------------------------------|-------------------
-|-----------------4--2----------------------4----2-------|-------------------
-|-----------------4--2----------------------4----2-------|-------------------
-|---2-------------4--2-----2----------------4----2-------|-------------------
-|---2-------------2--0-----2----------------2----0-------|-------------------
-|---0----------------------0-----------------------------|-------------------
G1+G2 The exodus is here the happy ones are near

-|---------------------------------------------------------------|------------
-|-----------------------4---2-----------------------4----2------|------------
-|-----------------------4---2-----------------------4----2------|------------
-|-----2-----------------4---2---------------2-------4----2------|------------
-|-----2-----------------2---0---------------2-------2----0------|------------
-|-----0-------------------------------------0-------------------|------------
G1+G2 Let's get together before we get much older

-|--------------------------------------------------------------------------|-
-|--------------------------------------------------------------------------|-
-|------------------------------------------------------------------x\------|-
-|--2---------------------------------------------------------------x\------|-
-|--2---------------------------------------------------------------x\------|-
-|--0-----------------------------------------------------------------------|-
G1 Teenage

-|-12---------------12-12---14b15r14-12-14b15r14-12h14p12-------------------|-
-|------12-12-12h14----------------------------------------14p12-14-12vvv---|-
-|--------------------------------------------------------------------------|-
-|--------------------------------------------------------------------------|-
-|--------------------------------------------------------------------------|-
-|--------------------------------------------------------------------------|-
Gsus2

-|---------------------------------------------------------------|------------
-|-----------------4----2--------------------------4----2--------|------------
-|-----------------4----2--------------------------4----2--------|------------
-|-----2-----------4----2---------------2----------4----2--------|------------
-|-----2-----------2----0---------------2----------2----0--------|------------
-|-----0--------------------------------0------------------------|------------
G1+G2 Wasteland oh yeah only teenage wasteland teenage

-|------------------------------------------------------------------|---------
-|-----------------4----2--------------------------4----2-----------|---------
-|-----------------4----2--------------------------4----2-----------|---------
-|-----2-----------4----2---------------2----------4----2-----------|---------
-|-----2-----------2----0---------------2----------2----0-----------|---------
-|-----0--------------------------------0---------------------------|---------
G1+G2 Wasteland oh yeah only teenage wasteland we're all

-|-------------------------------------------------------------|--------------
-|-------------------------------------------------------------|--------------
-|-----4------4------2------2--------------------7------7------|--------------
-|-----4------4------2------2------2------2------7------7------|--------------
-|-----2------2------0------0------2------2------5------5------|--------------
-|---------------------------------0------0--------------------|--------------
G1+G2 Wasted

-|-11--12--14--11--12--14--11-12-14--11--12--14--11--12--14--11-12-14--|------
-|---------------------------------------------------------------------|------
-|---------------------------------------------------------------------|------
-|---------------------------------------------------------------------|------
-|---------------------------------------------------------------------|------
-|---------------------------------------------------------------------|------
G1

-|---------------------------------------------------------------------|------
-|---------------------------------------------------------------------|------
-|--4---------------------------------2--------------------------------|------
-|--4---------------------------------2--------------------------------|------
-|--2---------------------------------0--------------------------------|------
-|---------------------------------------------------------------------|------
Gsus2

-|-11--12--14--11--12--14--11-12-14--11--12--14--11--12--14--11-12-14--|------
-|---------------------------------------------------------------------|------
-|---------------------------------------------------------------------|------
-|---------------------------------------------------------------------|------
-|---------------------------------------------------------------------|------
-|---------------------------------------------------------------------|------
G1

-|---------------------------------------------------------------------|------
-|---------------------------------------------------------------------|------
-|------------------------------------7--------------------------------|------
-|--2---------------------------------7--------------------------------|------
-|--2---------------------------------5--------------------------------|------
-|--0------------------------------------------------------------------|------
Gsus2

-|-11h12-11h12-11h12-11h12-11h12-11h12-11------|------------------------------
-|----------------------------------------12---|------------------------------
-|---------------------------------------------|------------------------------
-|---------------------------------------------|------------------------------
-|---------------------------------------------|------------------------------
-|---------------------------------------------|------------------------------
G1

-|---------------------------------------------|------------------------------
-|---------------------------------------------|------------------------------
-|--4------------------------------------------|------------------------------
-|--4------------------------------------------|------------------------------
-|--2------------------------------------------|------------------------------
-|---------------------------------------------|------------------------------
Gsus2

-|-11h12-11h12-11h12-11h12-11h12-11h12-14------|------------------------------
-|----------------------------------------12---|------------------------------
-|---------------------------------------------|------------------------------
-|---------------------------------------------|------------------------------
-|---------------------------------------------|------------------------------
-|---------------------------------------------|------------------------------
G1

-|---------------------------------------------|------------------------------
-|---------------------------------------------|------------------------------
-|--2------------------------------------------|------------------------------
-|--2------------------------------------------|------------------------------
-|--0------------------------------------------|------------------------------
-|---------------------------------------------|------------------------------
Gsus2

-|--------------------|---------------------------|-------------||------------
-|--12--------12------|---------------------------|-------------||------------
-|--------------------|---------------------------|-------------||------------
-|--------------------|-4--4--4--4----------------|-2-----------||------------
-|--------------------|-2--2--2--2----------------|-2-----------||------------
-|--------------------|---------------------------|-0-----------||------------
G1 Drum solo/jam in B

-|--------------------|---------------------------|-------------||------------
-|--------------------|---------------------------|-------------||------------
-|---4---------4------|---------------------------|-------------||------------
-|---x---------x------|-4--4--4--4----------------|-2-----------||------------
-|---2---------2------|-2--2--2--2----------------|-2-----------||------------
-|--------------------|---------------------------|-0-----------||------------
Gsus2

Oceń to opracowanie
Kontrybucje:
-=art=-
-=art=-
anonim