Hard To Imagine Pearl Jam

-|-------------------------------------------|--------------------------------
-|-------------------------------------------|--------------------------------
-|--6-6-6h7p6-7/9-7h9p7-6-7-6\4--/6-6-6h7p6--|--------------------------------
-|-------------------------------------------|--------------------------------
-|-------------------------------------------|--------------------------------
-|-------------------------------------------|--------------------------------
Intro Gtr. 1 2x

-|------------------------------------------|---------------------------------
-|------------------------------0-0-0-------|---------------------------------
-|-----------2------------------0-0-0-------|---------------------------------
-|--2--2--2--2--2-2-2--2--2--2--0-0-0--0h2--|---------------------------------
-|--0--0--0--0--0-0-0--0--0--0---------0----|---------------------------------
-|------------------------------------------|---------------------------------
Gtr.2 (Quietly) 2x

-|--------------------------------------------|-------------------------------
-|--------------------------------------------|-------------------------------
-|--6-6-6h7p6-7/9-7h9p7-6-7-6\4-/6-6-6h7p6vv--|-------------------------------
-|--------------------------------------------|-------------------------------
-|--------------------------------------------|-------------------------------
-|--------------------------------------------|-------------------------------
Verse Gtr. 1 3x

-|------------------------------------------|---------------------------------
-|------------------------------------------|---------------------------------
-|--6-6-6h7p6-7/9-9/11-9-7-7-7-7-6h7p6/4/2--|---------------------------------
-|------------------------------------------|---------------------------------
-|------------------------------------------|---------------------------------
-|------------------------------------------|---------------------------------


-|------------------------------------------------|---------------------------
-|--------------------------------------0-0-------|---------------------------
-|--2--2--2--2-----2-----2--2--2--2--2--0-0--0h2--|---------------------------
-|--2--2--2--2--2--2--2--2--2--2--2--2--0-0--0h2--|---------------------------
-|--0--0--0--0--0--0--0--0--0--0--0--0-------0----|---------------------------
-|------------------------------------------------|---------------------------
Gtr. 2

-|----0------0--------------|-------------------------------------------------
-|------0------0---0-----1--|-------------------------------------------------
-|-------------------0---0--|-------------------------------------------------
-|-----------------------2--|-------------------------------------------------
-|-----------------------3--|-------------------------------------------------
-|--5------4------3---------|-------------------------------------------------
Chorus Gtr. 2

-|-----0-----0---------|----------------------|-------------------------------
-|-------0-----0----5--|--x-------------------|-------------------------------
-|------------------5--|--x--7-7-7-6h7p6------|-------------------------------
-|--7------6-----5--5--|-----------------7----|-------------------------------
-|------------------3--|----------------------|-------------------------------
-|---------------------|----------------------|-------------------------------
Gtr. 1

-|-----------------------------------------------|----------------------------
-|-----------------------------------0-0-0-------|----------------------------
-|--2--2--2--2--2--2--2--2--2--2--2--0-0-0--0h2--|----------------------------
-|--2--2--2--2--2--2--2--2--2--2--2--0-0-0--0h2--|----------------------------
-|--0--0--0--0--0--0--0--0--0--0--0---------0----|----------------------------
-|-----------------------------------------------|----------------------------
Verse Gtr.2

-|-----------------------------------------|----------------------------------
-|-----------------------------------------|----------------------------------
-|--6-x-6h7p6-7/9-7h9p7\6-7-6\4-6-x-6h7p6--|----------------------------------
-|-----------------------------------------|----------------------------------
-|-----------------------------------------|----------------------------------
-|-----------------------------------------|----------------------------------
Gtr.1

-|---------------------------------|------------------------------------------
-|---------------------------------|------------------------------------------
-|--6-x-6h7p6-7/9v-9/11-9-7p6-7-6--|------------------------------------------
-|---------------------------------|------------------------------------------
-|---------------------------------|------------------------------------------
-|---------------------------------|------------------------------------------


-|-------------------------------------|--------------------------------------
-|-------------------------------------|--------------------------------------
-|--6-6h7p6-7/9-7h9p7\6-7-6/4-6-6h7p6--|--------------------------------------
-|-------------------------------------|--------------------------------------
-|-------------------------------------|--------------------------------------
-|-------------------------------------|--------------------------------------
With Fill 1

-|------------------------------------------|---------------------------------
-|------------------------------------------|---------------------------------
-|--6-x-6h7p6-7/9-9/11-9-7-7-7-7-6h7p6/4/2--|---------------------------------
-|------------------------------------------|---------------------------------
-|------------------------------------------|---------------------------------
-|------------------------------------------|---------------------------------


-|---------------|------------------------------------------------------------
-|---3/5---------|------------------------------------------------------------
-|---------------|------------------------------------------------------------
-|---------------|------------------------------------------------------------
-|---------------|------------------------------------------------------------
-|---------------|------------------------------------------------------------
Gtr.3 Fill 1

-|---------------|------------------------------------------------------------
-|---------------|------------------------------------------------------------
-|---------------|------------------------------------------------------------
-|---------------|------------------------------------------------------------
-|---------------|------------------------------------------------------------
-|---------------|------------------------------------------------------------
Chorus (Above)

-|-----------------------------------------3--|-------------------------------
-|------------------------2--2----3--------3--|-------------------------------
-|--2--2--x--2--2--2-x-x--2--2--x-0-----0--0--|-------------------------------
-|--2--2--x--2--2--2-x-x--0--0--x-0--0--0--0--|-------------------------------
-|--0--0--x--0--0--0-x-x--------x-2--2--2--2--|-------------------------------
-|--------------------------------3--3--3--3--|-------------------------------
Bridge/Outro Gtr. 2 Repeat Till End

-|----------------------|----------------------|----------------------|-------
-|----------------------|----------------------|----------------------|-------
-|----6-7-6--7/14-6-7-6-|----6-7-6-7/14-6-7-6--|----6-7-6-7/14-6-7-6--|-------
-|--7-------------------|--5-------------------|--7-------------------|-------
-|----------------------|----------------------|----------------------|-------
-|----------------------|----------------------|----------------------|-------
Gtr. 1 Outro

-|-------------------|--------------------------------------------------------
-|-------------------|--------------------------------------------------------
-|----6-7-6---6-7-6--|--------------------------------------------------------
-|--5-------5--------|--------------------------------------------------------
-|-------------------|--------------------------------------------------------
-|-------------------|--------------------------------------------------------
Repeat Till End

-|-------------|--------------------------------------------------------------
-|-------------|--------------------------------------------------------------
-|---6h7p6vv---|--------------------------------------------------------------
-|-------------|--------------------------------------------------------------
-|-------------|--------------------------------------------------------------
-|-------------|--------------------------------------------------------------
Gtr. 3 (Listen to CD)


Oceń to opracowanie
Kontrybucje:
-=art=-
-=art=-
anonim