Harmony Pearl Jam

Dropped-D tuning (DADGBE)

More 2nd guitar parts will be added later

-|-------------------------------------------------------|--------------------
-|-----3-------------------------------------------------|--------------------
-|-----2-------------------------------------------------|--------------------
-|-0---0----2---2----7---7----7---7---10-10--10-10-10-10-|--------------------
-|-0---0----2---2----7---7----7---7---10-10--10-10-10-10-|--------------------
-|-0---0----2---2----7---7----7---7---10-10--10-10-10-10-|--------------------
 G1

-|----------------------------------------------------|-----------------------
-|-----3----------------------------------------------|-----------------------
-|-----2----------------------------------------------|-----------------------
-|-0---0----2---2----5---5----5---5---10-10---10--10--|-----------------------
-|-0---0----2---2----5---5----5---5---10-10---10--10--|-----------------------
-|-0---0----2---2----5---5----5---5---10-10---10--10--|-----------------------
 G1

-|--------------------------------------------------|-------------------------
-|-----3--------------------------------------------|-------------------------
-|-----2--------------------------------------------|-------------------------
-|-0---0----2---2----7---7----7---7----7-7---7-7-7--|-------------------------
-|-0---0----2---2----7---7----7---7----7-7---7-7-7--|-------------------------
-|-0---0----2---2----7---7----7---7----7-7---7-7-7--|-------------------------
 G1

-|---------------------------|------------------------------------------------
-|-----3---------------------|------------------------------------------------
-|-----2---------------------|------------------------------------------------
-|-0---0----2---2----5---5---|------------------------------------------------
-|-0---0----2---2----5---5---|------------------------------------------------
-|-0---0----2---2----5---5---|------------------------------------------------
 G1

-|--------------------------------|-----------------|-------------------------
-|----------------------15--------|-----------------|-------------------------
-|----------------------14--------|-----------------|-------------------------
-|-----3-----2-----0-----0--------|-----3-----2-----|-------------------------
-|---0-----0-------0--------------|---0-----0-------|-------------------------
-|-3-----2-----4---0--------------|-3-----2-----4---|-------------------------
 G1                            2x

-|-------------------------------------------------------2------1---0-----||--
-|----7--5--3--/6--5--3--2--3----------------------------3------1---0-----||--
-|-----------------------------2--0--2-----2-----2-------2------2---0-----||--
-|--------------------------------------3-----2-----0----0------3---2-----||--
-|-------------------------------------------------------0----------x-----||--
-|-------------------------------------------------------0----------2-----||--
 G1                                                          repeat and fade

-|------------------------------------------------------------------------||--
-|-------------------------------------------------------3------1---0-----||--
-|-----------------------------2-------------------------2------2---0-----||--
-|--0--------------------------2-----0--------------0----0------3---2-----||--
-|--0--------------------------0-----0--------------0----0----------------||--
-|--0--------------------------------0--------------0----0----------------||--
 Gsus2

Oceń to opracowanie
Kontrybucje:
-=art=-
-=art=-
anonim