Hey Baby (Land of the New Rising Sun) Pearl Jam

Tekst piosenki

  • Tekst piosenki -=art=-
Mike is tuned down a half step on this one
Lyrics are not lined up perfectly...they are only a guideline

-|---------------------------0------------------------3h5p3----------------|--
-|-----x---------------------1------------------------3------3--3--3-----3-|--
-|-----x---------------------0------------------------4------4--4--4h5p4-4-|--
-|-----x---------------------2-----------0-2-3-/-5-------------------------|--
-|-----x-----------0-1-2--3--3---0-1-2-3-----------------------------------|--
-|-0-------0-1-2-3---------------------------------3-----------------------|--
 Intro, G1

-|----------------------------------------------------------------------|-----
-|----------------------------------------------------------------------|-----
-|-2---2-2-0----2--------x----------------------------------------------|-----
-|-2---2-2-0-2--2--------x---3-2-0---0-------------------------0--------|-----
-|-0---------0--0--------x---------3---3-2-0-----3---3-0-----2---2-0----|-----
-|----------------3b--0--x-------------------3-----------1-3---------1--|-----


-|----------------------------------------|-----------------------------------
-|----------------------------------------|-----------------------------------
-|----------------------------------------|-----------------------------------
-|-----------------1-0-----1-0------------|-----------------------------------
-|-1-0-----1-0---------3-1-----3-1-0------|-----------------------------------
-|-----3-1-----3-1-------------------3-1--|-----------------------------------


-|--------------------------------------------------------------------|-------
-|--------------------------------------------------------------------|-------
-|-8--8-8-8--------------------------5-0----6-0----7-0----------------|-------
-|-8--8-8-8-8--/-11--11-11-11-5------6-0----7-0----8-0----8-10p8------|-------
-|-6--6-6-6-8--/-11--11-11-11-5---6------7------8----------------10p0-|-------
-|----------6--/--9---9--9--9-3---4------5------6------7--------------|-------


-|---------------------------------------------------------|------------------
-|---------------------------------------------------------|------------------
-|-8--8-8-8--------------------------5-0----6-0----7-0-----|------------------
-|-8--8-8-8-8--/-11--11-11-11-5------6-0----7-0----8-0-----|------------------
-|-6--6-6-6-8--/-11--11-11-11-5---6------7------8------9---|------------------
-|----------6--/--9---9--9--9-3---4------5------6------7---|------------------


-|--------------------------6-------------------------------3------|----------
-|--------------------------6-------------------------------3------|----------
-|--------------------------7-------------------------------4------|----------
-|--------------------------8--------7----------------------5------|----------
-|-8---8h10p8-7-8-7---------8--------5---5h7p5-4-5-4--------5------|----------
-|------------------10-8-6--6------------------------7-5-3--3------|----------


-|------------------------------|---------------------------------------------
-|------------------------------|---------------------------------------------
-|------------------------------|---------------------------------------------
-|-4----------------------------|---------------------------------------------
-|-2---2h4p2-1-2-1--------------|---------------------------------------------
-|-----------------4-2-0--------|---------------------------------------------


-|----------5-------------5p3--------------------------------|----------------
-|----------5--------x-------------------3p1--------3--3--0--|----------------
-|-------6-----------x-x-------x---------2----x--x--2--2--0--|----------------
-|-------7-----5-------x-------x-x------------x--x-----------|----------------
-|-------------------------------x---------------------------|----------------
-|-5--5-----------3----------------1--1----------------------|----------------
 *all notes on 6th string fretted with thumb

-|-----------------------5p3---------------------------|----------------------
-|----x---7p5--------x-x-3----0-----x---3p1--1---3--3--|----------------------
-|----x-x-6----x-----x-x------0-----x-x-2----2---2--2--|----------------------
-|------x-7----x----------------------x-3--------0--0--|----------------------
-|----------------3------------------------------------|----------------------
-|-5-----------------------------1---------------------|----------------------
 *same as above

-|--------------------------------------------------------------------------|-
-|--------------------------------------------------------------------------|-
-|-7b9vvvv-7b9r7-5-5h7p5----------------------------------------------------|-
-|-----------------------7vv-7vvvv--5-5-5h7-7-7-7/9vv-9vv-9-9-7h9vv-9/10vv--|-
-|--------------------------------------------------------------------------|-
-|--------------------------------------------------------------------------|-


-|------------------------------------------------------------|---------------
-|-------------------------------10vvv-10-8-10\-----10-8-10v--|---------------
-|---------------------------x-x-----------------x------------|---------------
-|-10vvv-10v-10v-10v-10v-10v-x-x-----------------x------------|---------------
-|---------------------------x-x-----------------0------------|---------------
-|------------------------------------------------------------|---------------


-|--------------------5----------5------|-------------------------------------
-|-10-8\5-----------5---8b10vvv----8-5--|-------------------------------------
-|--------7---5-7b9---------------------|-------------------------------------
-|----------7---------------------------|-------------------------------------
-|--------------------------------------|-------------------------------------
-|--------------------------------------|-------------------------------------


-|-8b10---5-------5-------------------------------------|---------------------
-|----------8b10----8---5-------------------------------|---------------------
-|--------------------7---7b9r7-5h7p5vvvvv-5vvv--5h7-5--|---------------------
-|------------------------------------------------------|---------------------
-|------------------------------------------------------|---------------------
-|------------------------------------------------------|---------------------


-|------------------------------------------2------|--------------------------
-|------5h7p5--------x----------1--------3---------|--------------------------
-|------6------------x-4--------2--2-----------0---|--------------------------
-|------7--------------5-----------3---------------|--------------------------
-|-------------------------------------------------|--------------------------
-|--5------------3---------------------------------|--------------------------
                   Hey    baby

-|------------------5------------1-----------------|--------------------------
-|-----7p5---------------------1-1-------3--3------|--------------------------
-|----------0------------------2-------2-2---------|--------------------------
-|---------------------------------------0-----0---|--------------------------
-|-------------------------------------------------|--------------------------
-|--5-----------3---------1------------------------|--------------------------
                 Where do you coming from

-|--------5--------5p3--------------------2---2----|--------------------------
-|------7-5--------3---------------3p1----3---3----|--------------------------
-|------6-6--0-----4------------2--2------2---2----|--------------------------
-|------7-----------------------3--3------0---0----|--------------------------
-|-----------------------0-------------------------|--------------------------
-|--5-----------3-----------1----------------------|--------------------------
      She looked at me and smiled and looked into space and said

-|---5h7p5----------------------------3-------2---------|---------------------
-|---------5h7p5---------3h5p3--3-----1--1-1--3--3--3/--|---------------------
-|---------------6h7-----4------------2--2-2--2--2------|---------------------
-|---------------------------------------3-3--0--0------|---------------------
-|------------------------------------------------------|---------------------
-|-5------------------3-----------1---------------------|---------------------
   I'm coming from the land of the new rising sun

-|-------7p5--------------------3p1-----2--|----------------------------------
-|---5--------------5p3-----1-----------3--|----------------------------------
-|-----6---------4------------2-------2-2--|----------------------------------
-|-----------------------------------------|----------------------------------
-|-----------------------------------------|----------------------------------
-|-5-----------3----------1----------------|----------------------------------
           Then I said hey baby

-|-----7p5----------------------1h3p1--------------|--------------------------
-|----------------3---------1---------1------3--3--|--------------------------
-|----------0-----4--4--------2---------2--2-2--2--|--------------------------
-|----------------5--5-----------------------0--0--|--------------------------
-|-------------------------------------------------|--------------------------
-|-5-----------3---------1-------------------------|--------------------------
     Where you trying to go to

-|------------------3h5p3--------------3p1-------2---|------------------------
-|--5---5-----------------3h5p3----------------3-3---|------------------------
-|--6---6-----------------------4----2-------0-2-2---|------------------------
-|--7---7--------------------------------------------|------------------------
-|---------------------------------------------------|------------------------
-|---------------------------------1-----------------|------------------------
  She said I'm gonna spin and spread around peace of mind

-|-------7p5--------------------2--2--|---------------------------------------
-|--------------3--5---------1--3--3--|---------------------------------------
-|---6----------4--4-4---2---2--2--2--|---------------------------------------
-|-----7--------5--5-5-----3-3--0--0--|---------------------------------------
-|------------------------------------|---------------------------------------
-|-5----------3-----------------------|---------------------------------------
    And a whole lotta love to you and yours  yeah

-|---------------------------------------------------------------|------------
-|---------------------------------------------------------------|------------
-|-6--6--6-------------------------------------------------------|------------
-|-7--7--7--7--11--11---11---------------------------------------|------------
-|-7--7--7--7--11--11---11----10-10-10-10-10-10-9-9-9-9-8-8-8-8--|------------
-|-5--5--5--5---9---9----9---------------------------------------|------------
   Girl I'd like to come along

-|--------------------------------------------------------------|-------------
-|--------------------------------------------------------------|-------------
-|-6--6--6------------------------------------------------------|-------------
-|-7--7--7--7--11--11--11---------------------------------------|-------------
-|-7--7--7--7--11--11--11----10-10-10-10-10-10-9-9-9-9-8-8-8-8--|-------------
-|-5--5--5--5---9---9---9----10-10-10-10-10-10-9-9-9-9-8-8-8-8--|-------------
   Yes I'd like to come along

-|---------------------------------------------------------------|------------
-|---------------------------------------------------------------|------------
-|-6--6--6-------------------------------------------------------|------------
-|-7--7--7--7--11--11---11---------------------------------------|------------
-|-7--7--7--7--11--11---11----10-10-10-10-10-10-9-9-9-9-8-8-8-8--|------------
-|-5--5--5--5---9---9----9---------------------------------------|------------
   Would you like to come along she asked me

-|---------------------------------|---------------------|--------------------
-|---------------------------------|---------------------|--------------------
-|-6--6--6-------------------------|-------------2-------|--------------------
-|-7--7--7--7--11--11--11----------|---------4---0---4---|--------------------
-|-7--7--7--7--11--11--11----10----|---------2-----------|--------------------
-|-5--5--5--5---9---9---9----------|-0---3---------------|--------------------
   Yes take me along right now

-|----------------------------------------------------------|-----------------
-|--------------------------------------------------3--3----|-----------------
-|-----------------------------------------------x--2--2----|-----------------
-|-------------------------5---------------3-----x--0--0----|-----------------
-|-----0---7-----------5-----5---------3-----3---x--------0-|-----------------
-|-5-5---5---5---0-3-3---3-------0-1-1---1------------------|-----------------


-|----------------------------------------------------------|-----------------
-|-------------------------------------------------3----3---|-----------------
-|----------------------------------------------x--2----2---|-----------------
-|---------7---------------5---------------3----x--0----0---|-----------------
-|-----7-----7---------5-----5---------3-----3--x-----------|-----------------
-|-5-5---5-------0-3-3---3-------0-1-1---1------------------|-----------------


-|------------------------------------------------------------|---------------
-|-8b10vvv-10vvv-10-10vvv-10vv-10vv-10v-10v-10v-10v-10v-10vvv-|---------------
-|------------------------------------------------------------|---------------
-|------------------------------------------------------------|---------------
-|------------------------------------------------------------|---------------
-|------------------------------------------------------------|---------------
    hold bend----------------------------------------------|

-|-5-----------------------------------------------------|--------------------
-|---8-----5vvv---------------------------8-8-8-8-8-8-8--|--------------------
-|-----7b9------*9r7-5-5-5--------------x-9-9-9-9-9-9-9--|--------------------
-|-------------------------7vvv-7-7-5-7-x----------------|--------------------
-|-------------------------------------------------------|--------------------
-|-------------------------------------------------------|--------------------
                *pre-bend

-|-----------------8h10-8-------------------------------------------|---------
-|-8--8---8h10-8----------8h10-8------------------------------------|---------
-|-9----9--------9--------9------9\7-5--5-5-5\4-4-4-4h5p4-2--2-4-2--|---------
-|------------------------------------------------------------------|---------
-|------------------------------------------------------------------|---------
-|------------------------------------------------------------------|---------


-|-----------------------------------------------------------------------|----
-|--------------------------------------------5---5--5-5-8-----8----8----|----
-|-2h4p2p0h2--2h4p2p0h5--4h5p4h5--4h5p4h5/7---5---5--5-5-7b9---7b9--7-0--|----
-|----------------------------------------------7---------------------0--|----
-|-----------------------------------------------------------------------|----
-|-----------------------------------------------------------------------|----


-|-20b22---20b22--20b22r20-17----17-17----17-17----17-17-17-17----17-17-|-----
-|----------------------------20-20-20b22----20b22----------20b22---r21-|-----
-|----------------------------------------------------------------------|-----
-|----------------------------------------------------------------------|-----
-|----------------------------------------------------------------------|-----
-|----------------------------------------------------------------------|-----
                                    hold bend  hold bend---|  hold bend---

-|-20----20-20-20-20-20-20-20----20----20----20--------------0-0-----|--------
-|---b22-22-22-22r21r21r20-20b22-20b22-20b22-20b22--x\-0--/5-----\3--|--------
-|--------------------------------------------------x\-0-------------|--------
-|-------------------------------------------------------------------|--------
-|-------------------------------------------------------------------|--------
-|-------------------------------------------------------------------|--------
 --------grad release---|

-|----------------------------------------------------8-8-8-8--8--8--8--8--|--
-|-3b5r3-1-1-1--1-1-1---------------8-8-8-8-8-8-8-8-8-8-8-8-8h10-10-10-10--|--
-|--------------------2-2--0-2-4-2--9-9-9-9-9-9-9-9-9----------------------|--
-|-------------------------------------------------------------------------|--
-|-------------------------------------------------------------------------|--
-|-------------------------------------------------------------------------|--


-|--8-----8----8--12-12-12-12\10-10-10-10\8-8-8-8\5-5-5-5--5---5---5---5-5--|-
-|-10h8---8h10-8--12-12-12-12\10-10-10-10\8-8-8-8\5-5-5-5----5---5---5---5--|-
-|------9-------------------------------------------------------------------|-
-|--------------------------------------------------------------------------|-
-|--------------------------------------------------------------------------|-
-|--------------------------------------------------------------------------|-


-|-------7p5-----------5p3------------------2---|-----------------------------
-|-------5-------------3-----------1--------3---|-----------------------------
-|----6-------0-----4----------2---2-2-0-2--2---|-----------------------------
-|----------------5--------------3--------------|-----------------------------
-|----------------------------------------------|-----------------------------
-|-5------------3------------1------------------|-----------------------------


-|--------5-------------5p3-------------------2-----|-------------------------
-|----5-5-5-5-------3-----------1---3p1----3--3-----|-------------------------
-|----6-6---6--0------4-----------2-----2--2--2--0--|-------------------------
-|-----------------------------------------0-----0--|-------------------------
-|--------------------------------------------------|-------------------------
-|-5-------------3------------1---------------------|-------------------------


-|-------------5p3---------------------|--------------------------------------
-|----7-5--------------1----1----------|--------------------------------------
-|----6-6---4----------2-2--2---0--2---|--------------------------------------
-|----7-7--------------3-3---------0---|--------------------------------------
-|-----------------------3-------------|--------------------------------------
-|-5----------------1------------------|--------------------------------------
    Hey baby         yeah  can i step into your

-|------------------3h5p3------------------2--2-----|-------------------------
-|---5---5------3---------3----1---3-1-----3--3-----|-------------------------
-|---6---6--------4---------0----2-2-2-2---2--2--0--|-------------------------
-|---7---7-------------------------3-3--------------|-------------------------
-|--------------------------------------------------|-------------------------
-|-----------3--------------------------------------|-------------------------
   world for awhile

-|------------------------------------------|---------------------------------
-|--------7-5------3----------1------3--3---|---------------------------------
-|-6--6---6-6---4--4-4--0-----2------2--2---|---------------------------------
-|-7--7-7-7-7---5----5-----3-----0-0-0--0---|---------------------------------
-|--------------x---------------------------|---------------------------------
-|--------------3---------------------------|---------------------------------
   Yes you can she said             come on back with

-|--5h7p5--------------------------------------------------|------------------
-|--------5h7p5-----------3h5p3--------1---3-1---3--3-x----|------------------
-|--------------6-----4----------0-------2-2-2---2--2---0--|------------------
-|----------------------5------------------3-3---0--0------|------------------
-|---------------------------------------------------------|------------------
-|------------------3---------------1----------------------|------------------
  me          for a ride                             well

-|------7p5---------------------3p1-----2-------|-----------------------------
-|--------------------3-------1---------3-------|-----------------------------
-|-----------0----4---------2-2---------2--2-0--|-----------------------------
-|----7------------------------------0----------|-----------------------------
-|----------------------------------------------|-----------------------------
-|-5-----------3---------1----------------------|-----------------------------
 we're gonna go across the jupiter sun       and

-|---------------5p3---------------------------|------------------------------
-|----7p5----3----------1-1h3p1---1---3--3-----|------------------------------
-|----6--------4----------2-----2-----2--2--0--|------------------------------
-|----7-------------------------------0--0-----|------------------------------
-|---------------------------------------------|------------------------------
-|-5-------3----------1------------------------|------------------------------
  see all you people one by one       ooh

-|-------------------------------------------------|--------------------------
-|-----------3-----------------1-1------3--3--0-0--|--------------------------
-|-6---6--0--4--5p4---0----2---2-2--0-x-2--2--0-0--|--------------------------
-|-----------5--5---5--------3---3------0--0-------|--------------------------
-|-------------------------------------------------|--------------------------
-|-----------------------1-------------------------|--------------------------
 You gotta help your people out right now

-|--------7p5---------------------------------------------|-------------------
-|----5--------------------------------------3-3-3-3-0-0--|-------------------
-|----6-----------4--5p4--0---2-2-3p2-0-0--0-2-2-2-2-0-0--|-------------------
-|------7---------5--5------3---3-3--------0-0-0-0-0------|-------------------
-|--------------------------------------------------------|-------------------
-|-5-----------3------------------------------------------|-------------------
 That's what I'm doing this all about   all about

-|-------------------------------------------------------------|--------------
-|-------------------------------------------------------------|--------------
-|-6--6--6-----------------------------------------------------|--------------
-|-7--7--7--7--11--11---11-------------------------------------|--------------
-|-7--7--7--7--11--11---11---10-10-10-10-10-10-9-9-9-9-8-8-8-8-|--------------
-|-5--5--5--5---9---9----9-------------------------------------|--------------
   May I come along                        Hey

-|------------------------------------------------------------------|---------
-|------------------------------------------------------------------|---------
-|-6--6-------------------------------------------------------------|---------
-|-7--7--7--7--11--11--11-11-11-------------------------------------|---------
-|-7--7--7--7--11--11--11-11-11---10-10-10-10-10-10-9-9-9-9-8-8-8-8-|---------
-|-5--5--5--5---9---9---9--9--9-------------------------------------|---------
   May I come along

-|------------------------------------------------------------|---------------
-|------------------------------------------------------------|---------------
-|-6--6--6----------------------------------------------------|---------------
-|-7--7--7--7--11--11--11-------------------------------------|---------------
-|-7--7--7--7--11--11--11---10-10-10-10-10-10-9-9-9-9-8-8-8-8-|---------------
-|-5--5--5--5---9---9---9---10-10-10-10-10-10-9-9-9-9-8-8-8-8-|---------------
   May I come along                                     Pleeeaa

-|------------------------------------------------------------------|---------
-|------------------------------------------------------------------|---------
-|-6--6--6----------------------------------------------------------|---------
-|-7--7--7--7--11--11--11-11-11-------------------------------------|---------
-|-7--7--7--7--11--11--11-11-11---10-10-10-10-10-10-9-9-9-9-8-8-8-8-|---------
-|-5--5--5--5---9---9---9--9--9-------------------------------------|---------
 -ase   take me                        yeah

-|------------------------------------------------------------|---------------
-|------------------------------------------------------------|---------------
-|-6--6--6----------------------------------------------------|---------------
-|-7--7--7--7--11--11--11-------------------------------------|---------------
-|-7--7--7--7--11--11--11---10-10-10-10-10-10-9-9-9-9-8-8-8-8-|---------------
-|-5--5--5--5---9---9---9-------------------------------------|---------------
   May I come along             on                       I said

-|------------------------------------------|---------------------------------
-|------------------------------------------|---------------------------------
-|-6--6--6----------------------------------|---------------------------------
-|-7--7--7--7--11--11--11-------------------|---------------------------------
-|-7--7--7--7--11--11--11---10--------------|---------------------------------
-|-5--5--5--5---9---9---9-------------------|---------------------------------
   May I come along

-|--------------------------------------||------------------------------------
-|--------------------------------------||------------------------------------
-|---------------------2----------------||------------------------------------
-|-----------------4---0---4------------||------------------------------------
-|-------------5---2-----------0--------||------------------------------------
-|-0---0---0---3------------------------||------------------------------------
                                        End

Oceń to opracowanie
Kontrybucje:
-=art=-
-=art=-
anonim