I Won´t Back Down Pearl Jam

Tekst piosenki

  • Tekst piosenki -=art=-
Verse
-|-4-4-4-4---2---0-0-0-0-0-0--------------------------------------------------
-|-5-5-5-5---4---0-0-0-0-0-0--------------------------------------------------
-|-6-6-6-6---4---1-1-1-1-1-1--------------------------------------------------
-|-6-6-6-6---4---2-2-2-2-2-2--------------------------------------------------
-|-4-4-4-4---2---2-2-2-2-2-2--------------------------------------------------
-|---------------0-0-0-0-0-0--------------------------------------------------

Then "You can stand me up..." And "And I'll keep this world..."
-|-4-4-4-4---2-2-2---0-0-0-0-0-0----------------------------------------------
-|-5-5-5-5---4-4-4---2-2-2-2-2-2----------------------------------------------
-|-6-6-6-6---4-4-4---2-2-2-2-2-2----------------------------------------------
-|-6-6-6-6---4-4-4---2-2-2-2-2-2----------------------------------------------
-|-4-4-4-4---2-2-2---0-0-0-0-0-0----------------------------------------------
-|----------------------------------------------------------------------------

Then "But I won't back down"
-|-4-4-4-4---2---0-0-0-0-0-0--------------------------------------------------
-|-5-5-5-5---4---0-0-0-0-0-0--------------------------------------------------
-|-6-6-6-6---4---1-1-1-1-1-1--------------------------------------------------
-|-6-6-6-6---4---2-2-2-2-2-2--------------------------------------------------
-|-4-4-4-4---2---2-2-2-2-2-2--------------------------------------------------
-|---------------0-0-0-0-0-0--------------------------------------------------

Chorus "Hey baby..."
-|-0-0-0---0-0-0---2-2-2---0-0-0-0-0-0---0-0-0---0-0-0---2-2-2---0-0-0-0-0-0--
-|-2-2-2---0-0-0---4-4-4---0-0-0-0-0-0---2-2-2---0-0-0---4-4-4---0-0-0-0-0-0--
-|-2-2-2---1-1-1---4-4-4---1-1-1-1-1-1---2-2-2---1-1-1---4-4-4---1-1-1-1-1-1--
-|-2-2-2---2-2-2---4-4-4---2-2-2-2-2-2---2-2-2---2-2-2---4-4-4---2-2-2-2-2-2--
-|-0-0-0---2-2-2---2-2-2---2-2-2-2-2-2---0-0-0---2-2-2---2-2-2---2-2-2-2-2-2--
-|---------0-0-0-----------0-0-0-0-0-0-----------0-0-0-----------0-0-0-0-0-0--

Then "Hey I will stand..."
-|-0-0-0---0-0-0---2-2-2-2-2-2---4-4-4-4---2---0-0-0-0-0-0--------------------
-|-2-2-2---0-0-0---4-4-4-4-4-4---5-5-5-5---4---0-0-0-0-0-0--------------------
-|-2-2-2---1-1-1---4-4-4-4-4-4---6-6-6-6---4---1-1-1-1-1-1--------------------
-|-2-2-2---2-2-2---4-4-4-4-4-4---6-6-6-6---4---2-2-2-2-2-2--------------------
-|-0-0-0---2-2-2---2-2-2-2-2-2---4-4-4-4---2---2-2-2-2-2-2--------------------
-|---------0-0-0-------------------------------0-0-0-0-0-0--------------------

Then "But I won't back down"
-|-4-4-4-4---2---0-0-0-0-0-0--------------------------------------------------
-|-5-5-5-5---4---0-0-0-0-0-0--------------------------------------------------
-|-6-6-6-6---4---1-1-1-1-1-1--------------------------------------------------
-|-6-6-6-6---4---2-2-2-2-2-2--------------------------------------------------
-|-4-4-4-4---2---2-2-2-2-2-2--------------------------------------------------
-|---------------0-0-0-0-0-0--------------------------------------------------

Oceń to opracowanie
Kontrybucje:
-=art=-
-=art=-
anonim