I'm Above Pearl Jam

Tekst piosenki

  • Tekst piosenki -=art=-
Solo By Evan Cowan.

-|------------------------|---------------------------------------------------
-|--------x-----x---------|---------------------------------------------------
-|-----4--x-----x---------|---------------------------------------------------
-|--2--2--x--2--x------0--|---------------------------------------------------
-|--2--2--x--2--x--0h2----|---------------------------------------------------
-|-----------0------------|---------------------------------------------------
 Intro Gtr.1            4x

-|---------x---------|--------------------------------------------------------
-|---------x---------|--------------------------------------------------------
-|--1-1-1--x---------|--------------------------------------------------------
-|--2-2-2--x------0--|--------------------------------------------------------
-|--2-2-2--x--0h2----|--------------------------------------------------------
-|--0-0-0--x---------|--------------------------------------------------------
  Gtr.2            4x

-|---------------------|--3-3-3-3-3-3-3-3--|--0-0-0-0-0-0--|--0-0-0-0-0-0-0-|-
-|-----x---------------|--3-3-3-3-3-3-3-3--|--0-0-0-0-0-0--|--0-0-0-0-0-0-0-|-
-|--4--x--4-4-4-4-4-4--|--0-0-0-0-0-0-0-0--|--2-2-2-2-2-2--|--0-0-0-0-0-0-0-|-
-|--2--x--2-2-2-2-2-2--|--0-0-0-0-0-0-0-0--|--2-2-2-2-2-2--|--2-2-2-2-2-2-2-|-
-|--2--x--2-2-2-2-2-2--|--2-2-2-2-2-2-2-2--|--0-0-0-0-0-0--|--0-0-0-0-0-0-0-|-
-|--0-----0-0-0-0-0-0--|--3-3-3-3-3-3-3-3--|---------------|----------------|-
  Verse Gtr.1

-|----------------|--3-3-3-3-3-3-3-3--|--0--|---------------------------------
-|----------------|--3-3-3-3-3-3-3-3--|--0--|---------------------------------
-|--4--4-4-4-4-4--|--0-0-0-0-0-0-0-0--|--2--|---------------------------------
-|--2--2-2-2-2-2--|--0-0-0-0-0-0-0-0--|--2--|---------------------------------
-|--2--2-2-2-2-2--|--2-2-2-2-2-2-2-2--|--0--|---------------------------------
-|--0--0-0-0-0-0--|--3-3-3-3-3-3-3-3--|-----|---------------------------------
  End of Verse

-|--0-----0-0-0-0-0-0--|--3-3-3-3-3-3-3-3--|--0-0-0-0-0-0--|--0-0-0-0-0-0-0-|-
-|--0--x--0-0-0-0-0-0--|--3-3-3-3-3-3-3-3--|--0-0-0-0-0-0--|--0-0-0-0-0-0-0-|-
-|--0--x--0-0-0-0-0-0--|--0-0-0-0-0-0-0-0--|--2-2-2-2-2-2--|--0-0-0-0-0-0-0-|-
-|--2--x--2-2-2-2-2-2--|--0-0-0-0-0-0-0-0--|--2-2-2-2-2-2--|--2-2-2-2-2-2-2-|-
-|--2--x--2-2-2-2-2-2--|--2-2-2-2-2-2-2-2--|--0-0-0-0-0-0--|--0-0-0-0-0-0-0-|-
-|--0-----0-0-0-0-0-0--|--3-3-3-3-3-3-3-3--|---------------|----------------|-
  Gtr. 2

-|--0-0-0-0-0-0--|--3-3-3-3-3-3-3-3--|--0--|----------------------------------
-|--0-0-0-0-0-0--|--3-3-3-3-3-3-3-3--|--0--|----------------------------------
-|--0-0-0-0-0-0--|--0-0-0-0-0-0-0-0--|--2--|----------------------------------
-|--2-2-2-2-2-2--|--0-0-0-0-0-0-0-0--|--2--|----------------------------------
-|--2-2-2-2-2-2--|--2-2-2-2-2-2-2-2--|--0--|----------------------------------
-|--0-0-0-0-0-0--|--3-3-3-3-3-3-3-3--|-----|----------------------------------
  End of Verse

-|--------------------------------------------------------|-------------------
-|-----------------------------------------------x--3--3--|-------------------
-|----------4-4-4-----------------4-4-4----4--4--x--2--2--|-------------------
-|----------2-2-2-0h2-2p0---------2-2-2-2--4--4--x--0--0--|-------------------
-|--2-2-2-2-2-2-2---------2-2-2-2-2-2-2-2--2--2--x--0--0--|-------------------
-|--0-0-0-0-0-0-0---------0-0-0-0-0-0-0-0-----------------|-------------------
  Pre-Chorus Both Gtrs.

-|---------------------0-0-0-0-0-0--|-----------------------------------------
-|---1-1-1-1--0--0--x--0-0-0-0-0-0--|-----------------------------------------
-|---3-3-3-3--2--2--x--0-0-0-0-0-0--|-----------------------------------------
-|---2-2-2-2--1--1--x--2-2-2-2-2-2--|-----------------------------------------
-|---3-3-3-3--2--2--x--2-2-2-2-2-2--|-----------------------------------------
-|---------------------0-0-0-0-0-0--|-----------------------------------------
  Chorus Both Gtrs.

-|-----0---|------------------------------------------------------------------
-|-----0---|------------------------------------------------------------------
-|--2--2---|------------------------------------------------------------------
-|--0--2---|------------------------------------------------------------------
-|--0--0---|------------------------------------------------------------------
-|---------|------------------------------------------------------------------
  Post-Chorus  Both Gtrs.   With Fill 1

-|---------------|------------------------------------------------------------
-|---------------|------------------------------------------------------------
-|-----7--\2-----|------------------------------------------------------------
-|---------------|------------------------------------------------------------
-|---------------|------------------------------------------------------------
-|---------------|------------------------------------------------------------
 Gtr.3 Fill 1

-|-----------------------------|----------------------------------------------
-|-----------------------------|----------------------------------------------
-|-----------------------------|----------------------------------------------
-|-----------------------------|----------------------------------------------
-|-----------------------------|----------------------------------------------
-|-----------------------------|----------------------------------------------
  Solo Rhythm Verse Both Gtrs. 1 and 2

-|--0--0--0-2-3--3---3--2--0---3--2--0-----0-------0-----0-----0---------|----
-|--------------------------------------3-----3h5-----5-----5-----5-3-5--|----
-|-----------------------------------------------------------------------|----
-|-----------------------------------------------------------------------|----
-|-----------------------------------------------------------------------|----
-|-----------------------------------------------------------------------|----
  Solo Gtr.4

-|--------------------------|-----0-----------------------0--------------|----
-|-----0-----0-----0--------|----------0-----0-------0--------0----------|----
-|--4-----4-----4----4-2-0--|--2----2-----2-----2--2---2----2---2--2--0--|----
-|--------------------------|--------------------------------------------|----
-|--------------------------|--------------------------------------------|----
-|--------------------------|--------------------------------------------|----


-|---------------------|--3p0-----------|--------12---------------|-----------
-|---------------------|------3--0-3-0--|--15b17----15-12---------|-----------
-|--2b4-2b4r2p0--------|----------------|-----------------14-12\--|-----------
-|---------------------|----------------|-------------------------|-----------
-|---------------------|----------------|-------------------------|-----------
-|---------------------|----------------|-------------------------|-----------
  Last Chorus Fills Gtr. 3

-|-------------------------------|--------------------------------------------
-|-------------------------------|--------------------------------------------
-|--2b4r2p0---0------------------|--------------------------------------------
-|----------2---2p0h2p0h2p0h2p0--|--------------------------------------------
-|-------------------------------|--------------------------------------------
-|-------------------------------|--------------------------------------------


Oceń to opracowanie
Kontrybucje:
-=art=-
-=art=-
anonim