0
0

Nimfy Pidżama Porno

Tekst piosenki i chwyty na gitarę

  • Chwyty na gitarę Sad-spirit
    6 ulubionych

INTRO: (przerobione na gitarę)

E||--------------------------------------------------------------------|
B||--------------------------------------------------------------------|
G||--------------------------------------------------------------------|
D||--------------------------------0--2----0------------0--2----0------|
A||--3-3-3--3--2--2--0--0--x--x-----------------x--x-------------------|
E||--x-x-x--x--x--x--x--x--3--3-----------------3--3-------------------|



E|--------------------------------------------------------------------|
B|--------------------------------------------------------------------|
G|--------------------------------------------------------------------|
D|--------------------------------0--2----0------------0--2----0------|
A|--3-3-3--3--2--2--0--0--x--x-----------------x--x-------------------|
E|--x-x-x--x--x--x--x--x--3--3-----------------3--3-------------------|


G G G G G G
E|-------------------------------------------3--3----3--3----3--3------||
B|-------------------------------------------3--3----3--3----3--3------||
G|-------------------------------------------4--4----4--4----4--4------||
D|------------------------------2--5----2----5--5----5--5----5--5------||
A|-------2----5----2----3--3-----------------5--5----5--5----5--5------||
E|--3----------------------------------------3--3----3--3----3--3------||


G C D
Budzą się czerwone i młode baby
Wyciągają nogi spod pierzyny
I czem prędzej, i czem prędzej
Myją sobie gęby aby
Baby mogły bąkać, że są dziewczyny
Baby mogły bąkać, że są dziewczyny

Wabią balwierza baby oblane pąsem
Mówią: "My się boim czy nas nóż nie potnie"
A na to balwierz, a na to balwierz
Szczerzy swoje plomby złotne
Ja golę baby tylko swym blondynnym wąsem
Golę baby tylko swym blondynnym wąsem
Każda z nich kiedyś zawoła tak
Każda z nich kiedyś zawoła tak

C G D e
Tacha, tacha cała chata brzuchata
Cha cha, tacha cała chata brzuchata
Chata, tacha cała chata brzuchata
C D e (riff1)
Jest coraz bliżej końca świata

RIFF 1:

E||--0--------0--------||
B||-----0--------0-----||
G||--------0--------0--||
D||--------------------||
A||--------------------||
E||--------------------||

Zesztachały się baby aż po same kolana
Uciekając wpadła do rzeki ich tłuszcza
Baba babie, baba babie
Naga siada na barana
Baba nie słaba - łba baby nie puszcza
Baba nie słaba - łba baby nie puszcza

Gania je balwierz, ten kosmaty satyr
Baby zaś się kryją za baobabami
Każda trzyma w ręce, każda trzyma w ręce
Nabrzmiały balonik
I śmieje się do balwierza białemi zębami
Śmieje się do balwierza białemi zębami
Każda z nich kiedyś zawoła tak
Każda z nich kiedyś zawoła tak

Cha cha, tacha cała chata brzuchata
Cha cha, tacha cała chata brzuchata
Cha cha, tacha cała chata brzuchata
Jest coraz bliżej końca świata

Palcem pokazuje mu na kwietną górę
Swego brzucha to zaś nie jest chorobo
Z tego będzie prędko, z tego będzie prędko
Małe tłuste bobo
Karmić z cycek trzeba będzie, które
Karmić z cycek trzeba będzie, które

Złapana przez balwierza, tę małpę
Wraca na wieś wśród babiego lata
Baba dźwigara, baba dźwigana
Dzierży go za łapę i woła
I woła
Każda z was też kiedyś zawoła tak
Każda z was też kiedyś zawoła tak

Cha cha, tacha cała chata brzuchata
Cha cha, tacha cała chata brzuchata
Cha cha, tacha cała chata brzuchata
Jest coraz bliżej końca świata
Coraz bliżej końca świata
Coraz bliżej końca świata




Oceń to opracowanie
Ocena czytelników: Niczego sobie 1 głos
Kontrybucje:
Sad-spirit
Sad-spirit
anonim