0
0

Na Wojtusia ... Piosenki dla dzieci

  • Chwyty na gitarę Początkujący Tonacja c
    51 ulubionych
  • Chwyty na gitarę Winnetou
    1 ulubiony
cZ popielnika na Wojtusia iskiereczkaG mruga,
e|---------|-8-------|---------|---------|
B|-8-8-9-8-|---8-----|-8-8-9-8-|---------|
G|---------|-----8-8-|---------|-7-7-----|
D|---------|---------|---------|---------|
A|---------|---------|---------|---------|
E|---------|---------|---------|---------|

G7Chodź opowiem Ci bajeczke, bajka będziec długa.
e|---------|-10-8-7---|---------|--------|
B|-6-6-8-6-|--------9-|-8-6-----|--------|
G|---------|----------|-----8-7-|-5-5----|
D|---------|----------|---------|--------|
A|---------|----------|---------|--------|
E|---------|----------|---------|--------|



Oceń to opracowanie
Ocena czytelników: Niczego sobie 62 głosy
anonim
  • PanPingwin
    Gdzie reszta tekstu?
    · Zgłoś · 4 miesiące temu
  • Kacper
    martyna♥
    dzieki, jedna piosenka więcej ;D
    · Zgłoś · 8 lat temu