0
0

Błogosławieni Miłosierni - Hymn ŚDM 2016 tab Piosenki Religijne

Tekst piosenki i tabulatura

  • Tabulatura Początkujący Tonacja C
    1 ulubiony
E1-||---------0-0---------------------------------0-0-0--2-2----------------------|-
B2-||--2--2-4-----4-2---0--0---3--3-3-2-0-----0--------------4-2-0--2-2-----------|-
G3-||-----------------1-------------------2-2-------------------------------------|-
D4-||-----------------------------------------------------------------------------|-
A5-||-----------------------------------------------------------------------------|-
E6-||-----------------------------------------------------------------------------|-

E1-||---0-2-0----------------0-0------------------------------0-0-0--2-2----------|-
B2-||-2-------4-2-----2--2-4-----4-2---0--0---3--3-3-2-0---0-------------4-2-0-2--|-
G3-||--------------------------------1-------------------2------------------------|-
D4-||-----------------------------------------------------------------------------|-
A5-||-----------------------------------------------------------------------------|-
E6-||-----------------------------------------------------------------------------|-

E1-||----0-2-0-2-4----4-4-2-4--5-4-2---7-5-5-4-4--2-0---0---0--0-0-0-----0-0-2----|-
B2-||--2----------------------------------------------4----------------0----------|-
G3-||-----------------------------------------------------------------------------|-
D4-||-----------------------------------------------------------------------------|-
A5-||-----------------------------------------------------------------------------|-
E6-||-----------------------------------------------------------------------------|-

E1-||--2-0------------------------------------------------------------------------|-
B2-||------4-0--0--2-2------------------------------------------------------------|-
G3-||-----------------------------------------------------------------------------|-
D4-||-----------------------------------------------------------------------------|-
A5-||-----------------------------------------------------------------------------|-
E6-||-----------------------------------------------------------------------------|-
Oceń to opracowanie
Ocena czytelników: Doskonały 1 głos
Kontrybucje:
Nostradamus
Nostradamus

Dodaj własne wykonanie

Umiesz zagrać tą piosenkę? Nagraj swoje wykonanie i pokaż innym jak grasz!
anonim