0
0

Boski Ogród Pudelsi

Tekst piosenki i chwyty na gitarę

  • Chwyty na gitarę brylu
    1 ocena
Pochód | 1 |:

e:-------------------------------|

B:-------------------------------|

G:----------0-------0-----0------|

D:------4-------4-------4---4----|

A:----2-----------------------2--|

E:0------------------------------|



Pochód | 2 |:

e:-------------------------------|

B:-------------------------------|

G:----------0-------0------------|

D:------4-------4----------------|

A:----2--------------------------|

E:0------------------------------|



Pochód | 3 |:

e:--------------------|

B:----------0---------|

G:------2-------2-----|

D:----4-------------4-|

A:3-------------------|

E:--------------------|



Pochód | 4 |:

e:------------------|

B:------------------|

G:------------------|

D:------------------|

A:3---3-2-----------|

E:----------0-3--2--|





Cyfry to "pochody", a litery to zwykłe chwyty.

| 1 | 8x



Boski ogród, wieczny maj | 1 |

On jest pierwszy, ona naj | 1 |

Młode słońce jasno świeci | 1 |

Rajska miłość od tysiącleci | 2 |



Rajska miłość | 3 | 3 | 3 | 4 |



Rajska miłość od tysiącleci | 1 | 1 |



Na futrach zwierząt leżą nadzy | 1 |

Bez pępków, grzechu i bez skazy | 1 |

Bóg lubieżnik patrzy stary | 1 |

Przez niebieskie okulary | 1 |

| 1 | 1 |

Dla nich raj lecz nie ma nieba | 1 |

Bóg dał Ewie jabłko z drzewa | 1 |

Ewa dała Adamowi | 1 |

Ale Adam diabłu sprzedał | 2 |



Diabłu sprzedał | 3 | 3 | 3 | 4 |



Ref.

Boski ogród, wieczny maj | | E | A |

On jest pierwszy, ona naj | 4x | E | A |

| E | 1 | 1 | 1 |

Tak duszę swą zaprzedał Adam | 1 |

A gdy zatrute jabłko zjadał | 1 |

Ogryzek ością w gardle stawał | 1 |

Nieznana to dla niego strawa | 1 |



Nieznana to dla niego strawa | 1 | 1 |



Przeszłość, starość bielmem roni łzy | 1 |

Pamięć białą lagą prztrąca sny | 1 |

Wielu jest bogów a jeden wyznawca | 1 |

Szepczą bogowie: tyś nasz wybawca | 2 |



Tyś nasz wybawca | 3 | 13x

| 4 |

Ref.

Boski ogród, wieczny maj | | E | A |

On jest pierwszy, ona naj | 4x | E | A |

Ona naj

Ona naj

Ona naj



Boski ogród, wieczny maj |

On jest pierwszy, ona naj | 4x

Ona naj

Ona naj

Ona naj


Oceń to opracowanie
Ocena czytelników: Niczego sobie 1 głos
Kontrybucje:
brylu
brylu
anonim