Feuer Frei! Rammstein

Gitara musi być przestrojoną na Drop D (D,A,D,G,B,E).

Po wstępie:

D--8--
A--8--
D--8--

Główny riff

E-------------------------------
B-------------------------------
G-------------------------------
D--5--6--5--6--5--6--5--6--6/8--
A--5--6--5--6--5--6--5--6--6/8--
D--5--6--5--6--5--6--5--6--6/8--


Pare momentów w refrenie razem z keyboard'em:


E-------------
B-------------
G-------------
D--12--11--8--
A--12--11--8--
D--12--11--8--


Tabulatura dla gitary basowej:

G--------------------------------------
D--------------------------------------
A--------------------------------------
D--5--6--5--6--5--6--5--6--6/8--




Oceń to opracowanie
Kontrybucje:
Genro
Genro
anonim