0
0

Supergirl Reamonn

Tekst piosenki i chwyty na gitarę

  • Chwyty na gitarę ja chce elektryka! :(
    1 ocena
takie chwyty:
F#m (244222)
E (022100)
Bm (224432)
D (000232)
A (577655)
C#m (446654)

Intro:
----------------------5-4-5-5h7--5-4-2-4-2---2-------------------
---0-0-0-0h2--5-3-2------------------------3---------------------
-----------------------------------------------------------------
-----------------------------------------------------------------
-----------------------------------------------------------------
-----------------------------------------------------------------


na chwytach to będzie tak

--------A5-------0-2E-0-------2fis-4-2-------D-2-----------------------
--------5-------0-0-0-------2-2-2--------3-----------------------
--------6-------1-1-1-------2-2-2--------2-----------------------
--------7-------2-2-2-------4-4-4--------0-----------------------
--------7-------2-2-2-------4-4-4--------0-----------------------
--------5-------0-0-0-------2-2-2--------0-----------------------

You can tell by the way Sfishe walks that she's my girl           cis   
You can tell by the way Sb he talks she rules the world                  D 
You can see in her eyes Tfishat no one is her Chick                   cis   
She's b my girl my Supergirl   D 
And then she'd say ItA's OK
I got lost EOn the way
But I'm a Supergirfisl And Supergirls don't cry  D 
And she'Ad say It's alright
I got home LEate last night
But I'm a Supergifisrl And Supergirls just fly          D 
And then she'd say That nothing can go wrong
When you're in love What can go wrong
And then she'd laugh The night time into the day
Pushing her fears Further along
And then she'd say It's OK
I got lost On the way
But I'm a Supergirl And Supergirls don't cry
And she'd say It's alright
I got home Late last night
But I'm a Supergirl And Supergirls just fly
Then she'd shout Down the line
Tell me she's got No more time
Cause she's a Supergirl And Supergirls don't cry
Then she'd scream In my face
Tell me to leave leave this place
Cause she's a Supergirl And Supergirls just fly
She's a Supergirl A Supergirl
She's sewing seeds She's burning trees
She's sewing seeds She's burning trees
She's a Supergirl A Supergirl
A Supergirl My Supergirl

nie mojego autorstwa ale nie ma jeszcze na wywrocie więc dodaje myślę że się komuś przyda bo piosenka jest świetna :)


Oceń to opracowanie
Ocena czytelników: Słaby 1 głos
anonim